Song name
# A B C D E F G H I J K L M N O P Q R S T U V W X Y Z

Misc Unsigned Bands - Blackhole - Forever tab

-------------------------------------------------------------------------------
			     Forever - Blackhole
-------------------------------------------------------------------------------
Tabbed by: Tom O'Dwyer
Email: againstforgetting@hotmail.co.uk

Tuning: DADGBE

Intro/Verse x8
e|--------------------------------------|
B|--------------------------------------|
G|--------------------------------------|
D|--------------------------------------|
A|--7--10-------------------------------|
D|---------7--5--0--2--2--0--0--2--2----|

Pre-Chorus x2
e|---------------------------------------------------------------|
B|---------------------------------------------------------------|
G|---------------------------------------------------------------|
D|--10-10-10-10-10-10--7-7-7--9-9-9--2-2-2-2-2-2--5-5-5-5-5-5----|
A|--10-10-10-10-10-10--7-7-7--9-9-9--2-2-2-2-2-2--5-5-5-5-5-5----|
D|--10-10-10-10-10-10--7-7-7--9-9-9--2-2-2-2-2-2--5-5-5-5-5-5----|			      



| /  slide up
| \  slide down
| h  hammer-on
| p  pull-off
| ~  vibrato
| +  harmonic
| x  Mute note
===============================================================================
Tap to rate this tab
# A B C D E F G H I J K L M N O P Q R S T U V W X Y Z