Song name
# A B C D E F G H I J K L M N O P Q R S T U V W X Y Z

Misc Unsigned Bands - Scyonic - Sink Or Swim tab

Artist: Scyonic
Song: Sink or Swim
Written by: NyCTo
Maker of tab: NyCTo

I wrote this song and these tabs.

.=Palm Mute
*=Natural Harmonic
^=Bend 1/2

Intro (clean and with distortion)
Verse
Pre-Chorus
Chorus
Intro (with distortion)
Verse
Pre-Chorus
Chorus
Interlude
Bridge 1
Bridge 2
Solo
Chorus
Outro

               INTRO (clean)
E|---------------------------------------|
B|---------------------------------------|
G|-12-121212-12-12-12--10-101010-10-10-10|
D|-12-121212-12-12-12--10-101010-10-10-10|
A|---------------------------------------|
D|---------------------------------------|

                      INTRO (with distortion)
E|------------------------------------------------------------|
B|------------------------------------------------------------| x2
G|---------------------------------------------------8-88-----|
D|10-1010-12-12121212--6-66-8-8888--10-1010-1212^12--6-66-88^8|
A|10-1010-10-10101010--6-66-6-6666--10-1010-1010 10--6-66-66 6|
D|10-1010-10-10101010--6-66-6-6666--10-1010-1010 10--6-66-66 6|

E|--------|
B|--------|
G|--------|
D|8-86-5--|
A|6-66-3--|
D|6-66-3--|

             VERSE 1 & 2
E|--------------------------------------|
B|--------------------------------------| x4
G|--555---555577------------------------|
D|-----------------101010---101010101212|
A|0-333-0-333355-0-8 8 8 -0-8 8 8 8 1010|
D|0-----0--------0-- - - -0-- - - - ----|

                             PRE-CHORUS
E|---------------------------------------------------------------------|
B|---------------------------------------------------------------------|
G|---------------------------------------------------------------------|
D|-----3---------------3----------------3------------------------------|
A|0-00-1-0-00-310-0-00-1-0-00-343--0-00-1-0-00-310-3-334-44-4-4-444-3-0|
D|0-00---0-00-310-0-00---0-00-343--0-00---0-00-310-3-333-33-4-4-444-3-0|
   ..              ..               ..

                               CHORUS
E|-------------------------------------------------------------------------|
B|-------------------------------------------------------------------------|
G|-------------------------------------------------------------------------|
D|5-57-10-10101010--10-101010-1212^12---5-57-10-10101010--10101010-10101010|
A|5-55-8 -8 8 8 8 --10-101010-1010 10---5-55-8 -8 8 8 8 --7 7 7 7 -8 8 8 8 |
D|5-55-8 -8 8 8 8 --10-101010-1010 10---5-55-8 -8 8 8 8 --7 7 7 7 -8 8 8 8 |

                          INTERLUDE
E|------------------------------------------------------------|
B|------------------------------------------------------------| x3
G|------------------------------------------------------------| (First time
D|-----5-------5-------5-------5------5-------5------5-------5|  play it
A|--33-------3------55-------5-----66-------6-----55-------5--|  palm-muted)
D|3------3-3------5------5-5-----6------6-6-----6------6-6----|

                   BRIDGE 1
E|-----------------------------------------------|
B|-----------------------------------------------| x2
G|------7-777-7-777-8-888-8-888-7-777-7-777-7-777|
D|5-555-5-555-5-555-5-555-6-666-6-666-5-555-5-555|
A|3-333-3-333-5-555-5-555-6-666-6-666-5-555-5-555|
D|3-333-3-333-5-555-5-555-6-666-6-666-5-555-5-555|

                          BRIDGE 2
E|----------------------      --------------------------------------------|
B|---------------------- x3   15-151515-16-16161616--15-15151515-15151515-|
G|--------13-13-13131212      13-131313-13-13131313--13-13131312-12121212-|
D|--------12-12-12121212      12-121212-12-12121212--12-12121212-12121212-|
A|0-0-000-- -- -- - - -       - -- - - -- -- - - - --- -- - - - -- - - -
D|0-0-000-- -- -- - - -       - -- - - -- -- - - - --- -- - - - -- - - -

E ----------------------      17-171717-18-18181818--17-17171717-17171717|
B --------16-16-16161515 x3   16-161616-16-16161616--16-16161615-15151515|
G --------14-14-14141414      14-141414-14-14141414--14-14141414-14141414|
D --------- -- -- - - -       - -- - - -- -- - - - --- -- - - - -- - - - |
A 0-0-000-- -- -- - - -       - -- - - -- -- - - - --- -- - - - -- - - - |
D 0-0-000-- -- -- - - -       - -- - - -- -- - - - --- -- - - - -- - - - |

                            GUITAR SOLO
E|------------------------------------------121312-151715-151715----------|
B|----------------------------------------11---------------------18-------|
G|------17---------17----17---15---14---12-------------------------17-----|
D|15-15------15-15-----15---13---12---10-----------------------------17---|
A|---------------------------------------------------------------------19-|
D|------------------------------------------------------------------------|

E -------------------------------|
B -------------------------------|
G -------------------------------|
D -----------------------------12|
A -----17---15---12--13--12-10-10|
D 17-15---12---10--10--10------10|

                                 OUTRO
E|-----------------------------------------------------------------------|
B|-----------------------------------------------------------------------|
G|-------------8888--------------------------------8888------------------|
D|10-101010-10------10-101010-10-8888-10-101010-10------10-101010-10-8---|
A|8 -8 8 8 -8 ------8 -8 8 8 -8 ------8 -8 8 8 -8 ------8 -8 8 8 -8 -----|
D|8 -8 8 8 -8 ------8 -8 8 8 -8 ------8 -8 8 8 -8 ------8 -8 8 8 -8 -----|
               ****              ****              ****              *

Lyrics:

Verse 1:
Droplets falling
Falling on my head
Wondering still
Is this over yet?
We can fill some space
But we cannot fill the whole void
We always turn to walk away
Finding someplace to hide

Chorus:
So climb on your cloud and drift away
Swim in your ocean and ride a wave
Stand then fall into a blurry mist
Stand then sink into a dark abyss

Verse 2:
Watching mirrors
Reflecting all of us
Feeling the glass
That falls when it's touched
We try to throw it off
But it will shatter on the ground
With shards scattered all across
Losing the lost and found

Bridge 1:
We're saving ourselves
We're killing ourselves
Soon as we wait, we'll get washed away
We redeem ourselves
We murder ourselves
Soon as we wait, we'll get washed away

Bridge 2:
Away. . .
Away. . .
Away. . .
Soon as we wait, we'll get washed away
Away. . .
Away. . .
Away. . .
Soon as we wait, we'll get washed away



NyCTo sammoNd
Tap to rate this tab
# A B C D E F G H I J K L M N O P Q R S T U V W X Y Z