Song name
# A B C D E F G H I J K L M N O P Q R S T U V W X Y Z

Misc Unsigned Bands - Beware - Corpse tab

Song Name:"Corpse"
Band Name:Beware
Album Name:---------

Tabber:Toki Vengeance (Dakota Fletcher)
Tuning:Drop D (D,A,D,G,B,E)
More Info:I just tabbed the verse,chorus, and riff 1. I will submit
a second version of this tab that includes the remander of the song.


Verse:
E:-----------------------------------------------------------------|
B:-----------------------------------------------------------------|
G:-7-7-7-7-7-7-7-7-9-9-9-9-9-9-9-9-5-5-5-5-5-5-5-5-----------------|
D:-7-7-7-7-7-7-7-7-9-9-9-9-9-9-9-9-5-5-5-5-5-5-5-5-5-5-5-5-5-5-5-5-|
A:-5-5-5-5-5-5-5-5-7-7-7-7-7-7-7-7-3-3-3-3-3-3-3-3-5-5-5-5-5-5-5-5-|
D:-------------------------------------------------5-5-5-5-5-5-5-5-|


Chorus:
E:-----------------------------------|
B:-----------------------------------|
G:-----------------------------------|
D:-5-5--5/12-5-5-7-6-5-5-5-5-5-5-5-5-|
A:-5-5--5/12-5-5-7-6-5-5-5-5-5-5-5-5-|
D:-5-5--5/12-5-5-7-6-5-5-5-5-5-5-5-5-| x2

E:-----------------------------------|
B:-----------------------------------|
G:-----------------------------------|
D:-5-5--5/12-5-5-6-7-9~~~~~~~~~~~~---|
A:-5-5--5/12-5-5-6-7-9~~~~~~~~~~~~---|
D:-5-5--5/12-5-5-6-7-9~~~~~~~~~~~~---|

E:-----------------------------------|
B:-----------------------------------|
G:-----------------------------------|
D:-5-5--5/12-5-5-7-6-5-5-5-5-5-5-5-5-|
A:-5-5--5/12-5-5-7-6-5-5-5-5-5-5-5-5-|
D:-5-5--5/12-5-5-7-6-5-5-5-5-5-5-5-5-|


Riff 1:
E:---------------------|
B:---------------------|
G:-5h7-5h7-5h7-5h7-----|
D:-----------------1/9-|
A:-----------------1/9-|
D:-----------------1/9-|

Order(So Far):
Verse   x4
Chorus  x1
Riff 1  x1
Verse   x4
Tap to rate this tab
 
# A B C D E F G H I J K L M N O P Q R S T U V W X Y Z