Song name
# A B C D E F G H I J K L M N O P Q R S T U V W X Y Z

Misc Unsigned Bands - 420 Proof - Black Xmas tab

Artist: 420 Proof
Song: Black Xmas
Album: Here's Your Proof (2009)
Tuning: Drop C
Composer: C. Adams

Intro/Chorus
|----------------------------|
|----------------------------|
|----------------------------|
|----------------------------|
|-3--3-5-7--5-0--2-2-2-2-2-2-|
|-3--3-5-7--5-0--2-2-2-2-2-2-|

Verse (Guitar 1)
|-------------------------------------------------|
|-------------------------------------------------|
|-11-11-11-11-11-11-11-11-11-11-11-11-11-11-11-11-|
|--x--x--x--x--x--x--x--x--x--x--x--x--x--x--x--x-|
|--9--9--9--9--9--9--9--9--9--9--9--9--9--9--9--9-|
|--0--0--0--0--0--0--0--0--0--0--0--0--0--0--0--0-|

Verse (Guitar 2)
|---------------------------------|
|---------------------------------|
|---------------------------------|
|-8-8-8-8-8-8-8-8-8-8-8-8-8-8-8-8-|
|-6-6-6-6-6-6-6-6-6-6-6-6-6-6-6-6-|
|---------------------------------|

Pre Chorus
|----------------------------|
|----------------------------|
|----------------------------|
|----------------x-x-x-x-x-x-|
|-3--3-5-7--5-0--x-x-x-x-x-x-|
|-3--3-5-7--5-0--x-x-x-x-x-x-|

Bridge
|-----------------------------------------------------------------|
|-----------------------------------------------------------------|
|-----------------------------------------------------------------|
|-7-7-7-7-7-7-7-7-9-9-9-9-9-9-9-9-5-5-5-5-5-5-5-5-3-3-3-3-3-3-3-3-|
|-5-5-5-5-5-5-5-5-7-7-7-7-7-7-7-7-3-3-3-3-3-3-3-3-1-1-1-1-1-1-1-1-|
|-0-0-0-0-0-0-0-0-0-0-0-0-0-0-0-0-0-0-0-0-0-0-0-0-0-0-0-0-0-0-0-0-|
Tap to rate this tab
# A B C D E F G H I J K L M N O P Q R S T U V W X Y Z