Song name
# A B C D E F G H I J K L M N O P Q R S T U V W X Y Z

Misc Unsigned Bands - Black Anger - Eclipse tab

e|---------------------------------------------------|
B|---------------------------------------------------|
G|---5-----------------------------------------------|
D|---5------6------8-----3---------------------------|  7X
A|---3------6------8-----3---------------------------|
E|----------4------6-----1---------------------------|


|------------------------------------------15-17---------|
|-------------------------------------15--17----17-16----|
|-11-13-13-14-11-13-13-14^^^-----/15-17-------------15-17|
|--------------------------------------------------------|
|--------------------------------------------------------|
|--------------------------------------------------------|

|-----------------------------------------------------------|
|-----------------------------------------------------------|
|--\12-\9-\7--7h9\5-7--5h7\3-5--3h5\1-3-1h3\0h1\12^^^--/14--|
|-----------------------------------------------------------|
|-----------------------------------------------------------|
|-----------------------------------------------------------|


|---------------------15h17h19--19p17p15----------------------|
|--------------15h17h19-----------------17p15------19----15---|
|--/15--15h17h19----------------------------17p15-------------|
|-------------------------------------------------------------|
|-------------------------------------------------------------|
|-------------------------------------------------------------|

|--------17-----14h15p14--14h15p14----------------------------|
|--17^^^----------------------------15^^^^^^------------------|
|-------------------------------------------------------------|
|-------------------------------------------------------------|
|-------------------------------------------------------------|
|-------------------------------------------------------------|
Tap to rate this tab
 
# A B C D E F G H I J K L M N O P Q R S T U V W X Y Z