Song name
# A B C D E F G H I J K L M N O P Q R S T U V W X Y Z

Misc Unsigned Bands - Isaryce - Failure tab

--------------------------------------------------------------------------|
--------------------------------------------------------------------------|
--------------------------------------------------------------------------|
-5-5-3-----5-5-3---------5-5-3-----5-5-3----------------------0-----------|
-5-5-3-----5-5-3---------5-5-3-----5-5-3----------1-1-3-3-4-4-0-----------|
-------2-3-------3h4p3---------2-3-------3h4p3----1-1-3-3-4-4-------------|

--------------------------------------------------------------------------|
--------------------------------------------------------------------------|
--------------------------------------------------------------------------|
-5-5-3-----5-5-3---------5-5-3-----5-5-3----------------------0-----------|
-5-5-3-----5-5-3---------5-5-3-----5-5-3----------1-1-3-3-4-4-0-----------|
-------2-3-------3h4p3---------2-3-------3h4p3----1-1-3-3-4-4-------------|

--------------------------------------------------------------------------|
--------------------------------------------------------------------------|
--------------------------------------------------------------------------|
-5-5-3-----5-5-3---------5-5-3-----5-5-3----------------------0-----------|
-5-5-3-----5-5-3---------5-5-3-----5-5-3----------1-1-3-3-4-4-0-----------|
-------2-3-------3h4p3---------2-3-------3h4p3----1-1-3-3-4-4-------------|

--------------------------------------------------------------------------|
--------------------------------------------------------------------------|
--------------------------------------------------------------------------|
-5-5-3-----5-5-3---------5-5-3-----5-5-3----------------------0-----------|
-5-5-3-----5-5-3---------5-5-3-----5-5-3----------1-1-3-3-4-4-0-----------|
-------2-3-------3h4p3---------2-3-------3h4p3----1-1-3-3-4-4-------------|

--------------------------------------------------------------------------|
--------------------------------------------------------------------------|
--------------------------------------------------------------------------|
--------------------------------------------------------------------------|
------------2-3-------------3-2-------------------------------------------|
-5-2-3-5-2-3----5-2-3-5-2-3-------0-1-2-0-1-0-3-0--0-1-2-0-3-0-5-0--------|

----------------2h3-----------------1h2-----------------------------------|
------------3h4-----1h2---------1h2----1h2--------------------------------|
-0--0-0-3h5--------------0--0-0------------1h2----------------------------|
--------------------------------------------------------------------------|
--------------------------------------------------------------------------|
--------------------------------------------------------------------------|

--------------------------------------------------------------------------|
-------------------2h3p2h3p2h3p2h3--------------------2h3p2hp3h2p3h2p3----|
-0-5-4-4-3-3-2-2-1------------------0-5-4-4-5-5-2-2-1---------------------|
--------------------------------------------------------------------------|
--------------------------------------------------------------------------|
--------------------------------------------------------------------------|

--------------------------------------------------------------------------|
--------------------------------------------------------------------------|
--------------------------------------------------------------------------|
--------------------------------------------------------------------------|
-------------------------------------0-0-3-5-0-6-5-3-0--0-0-3-0-5-0-6p5---|
-0-0-2-3--3-3-5-6--6-6-5-1--1-1-3-5---------------------------------------|

--------------------------------------------------------------------------|
--------------------------------------------------------------------------|
-0-3-5-0-6-5-3-0--0-0-3-0-5-0-6p5----0-3-5-0-6-5-3-0--0-0-3-0-5-0-6p5-----|
-0-3-5-0-6-5-3-0--0-0-3-0-5-0-6p5----0-3-5-0-6-5-3-0--0-0-3-0-5-0-6p5-----|
--------------------------------------------------------------------------|
--------------------------------------------------------------------------|


--------------------------------------------------------------------------|
--------------------------------------------------------------------------|
-0-3-5-0-6-5-3-0--0-0-3-0-5-0-6p5----0-3-5-0-6-5-3-0--0-0-3-0-5-0-6p5-----|
-0-3-5-0-6-5-3-0--0-0-3-0-5-0-6p5----0-3-5-0-6-5-3-0--0-0-3-0-5-0-6p5-----|
--------------------------------------------------------------------------|
--------------------------------------------------------------------------|


----------------2h3-----------------1h2-----------------------------------|
------------3h4-----1h2---------1h2----1h2--------------------------------|
-0--0-0-3h5--------------0--0-0------------1h2----------------------------|
--------------------------------------------------------------------------|
--------------------------------------------------------------------------|
--------------------------------------------------------------------------|

--------------------------------------------------------------------------|
-------------------2h3p2h3p2h3p2h3--------------------2h3p2hp3h2p3h2p3----|
-0-5-4-4-3-3-2-2-1------------------0-5-4-4-5-5-2-2-1---------------------|
--------------------------------------------------------------------------|
--------------------------------------------------------------------------|
--------------------------------------------------------------------------|

--------------------------------------------------------------------------|
--------------------------------------------------------------------------|
--------------------------------------------------------------------------|
-0-3-3--2-5-3-1-0---0000000000000000--------------------------------------|
-0-3-3--2-5-3-1-0---0000000000000000--------------------------------------|
--------------------------------------------------------------------------|
Tap to rate this tab
 
# A B C D E F G H I J K L M N O P Q R S T U V W X Y Z