Song name
# A B C D E F G H I J K L M N O P Q R S T U V W X Y Z

Misc Unsigned Bands - Isaryce - Kings Corner tab

----------------------------------------------------------------|
----------------------------------------------------------------|
-7--7-7--9-12--9-11--7-9--5-7--5--5-5-3-5--2-5--1-5--0-3--------|
-0--0-0--0-0---0-0---0-0--0-0--0--0-0-0-0--0-0--0-0--0-0--------|
----------------------------------------------------------------|
----------------------------------------------------------------|

----------------------------------------------------------------|
----------------------------------------------------------------|
-7--7-7--9-12--9-11--7-9--5-7--5--5-5-3-5--2-5--1-5--0-3--------|
-0--0-0--0-0---0-0---0-0--0-0--0--0-0-0-0--0-0--0-0--0-0--------|
----------------------------------------------------------------|
----------------------------------------------------------------|

----------------------------------------------------------------|
----------------------------------------------------------------|
-7--7-7--9-12--9-11--7-9--5-7--5--5-5-3-5--2-5--1-5--0-3--------|
-0--0-0--0-0---0-0---0-0--0-0--0--0-0-0-0--0-0--0-0--0-0--------|
----------------------------------------------------------------|
----------------------------------------------------------------|

----------------------------------------------------------------|
----------------------------------------------------------------|
-7--7-7--9-12--9-11--7-9--5-7--5--5-5-3-5--2-5--1-5--0-3--------|
-0--0-0--0-0---0-0---0-0--0-0--0--0-0-0-0--0-0--0-0--0-0--------|
----------------------------------------------------------------|
----------------------------------------------------------------|
Tap to rate this tab
 
# A B C D E F G H I J K L M N O P Q R S T U V W X Y Z