Song name
# A B C D E F G H I J K L M N O P Q R S T U V W X Y Z

Misc Unsigned Bands - Three Minutes Clapping - Takeharu Ishimoto tab

Game: The World Ends With You/Subarashiki Kono-sekai
AKA What A Wonderful World
Song: Three Minutes Clapping by Takeharu Ishimoto
Tabbed by: Nyafall...sounds like Niagra falls..lol another song i liked
From the Original soundtrack, which is different than the repeated one used.
Constructive critisism would be great on how to improve this :D

Intro/Beat
E|-----------------------------------------------------------------|
B|-----------------------------------------------------------------|
G|-----------------------------------------------------------------|
D|-----------------------------------------------------------------|
A|---------------------------/-3--3--3--2-2-2-2-2-2-2--------------|
E|--5--5--5--3-3-3-3-3-3-3-3-/-------------------------------------|  X10


Background Riff
E|-----------------------------------------------------------------|
B|-----------------------------------------------------------------|
G|-----------------------------------------------------------------|
D|---7---7---7---7-5-7-------7---7---7---7-5-7---------------------|
A|---7---7---7---7-5-7-------7---7---7---7-5-7---------------------|
E|---5---5---5---5-3-5-------5---5---5---5-3-5---------------------|  X4

E|-----------------------------------------------------------------|
B|-----------------------------------------------------------------|
G|-----------------------------------------------------------------|
D|---7---7---7---7-9-7-------7---7---7---7-5-7---------------------|
A|---7---7---7---7-9-7-------7---7---7---7-5-7---------------------|
E|---5---5---5---5-7-5-------5---5---5---5-3-5---------------------|  X8

Chorus/short solo?...coming soon
E|-----------------------------------------------------------------|
B|-----------------------------------------------------------------|
G|-----------------------------------------------------------------|
D|-----------------------------------------------------------------|
A|-------------------------/-X--X--X--X-X-X-X-X-X-X-X--------------|
E|--X--X--X--X-X-X-X-X-X-X-/---------------------------------------|  X2

Chorus plays in background twice while solo goes off...

Solo
E|-----------------------------------------------------------------|
B|-----------------------------------------------------------------|
G|-----------------------------------------------------------------|
D|-----------------------------------------------------------------|
A|-----------------------------------------------------------------|
E|-----------------------------------------------------------------|

Beat
E|-----------------------------------------------------------------|
B|-----------------------------------------------------------------|
G|-----------------------------------------------------------------|
D|-----------------------------------------------------------------|
A|---------------------------/-3--3--3--2-2-2-2-2-2-2--------------|
E|--5--5--5--3-3-3-3-3-3-3-3-/-------------------------------------|  X3

E|-----------------------------------------------------------------|
B|-----------------------------------------------------------------|
G|-----------------------------------------------------------------|
D|-----------------------------------------------------------------|
A|-----------------------------------------------------------------|
E|--5--5--5--3-3-3-3-3-3-3-3-/-------------------------------------|  X1

Background Riff
E|-----------------------------------------------------------------|
B|-----------------------------------------------------------------|
G|-----------------------------------------------------------------|
D|---7---7---7---7-5-7-------7---7---7---7-5-7---------------------|
A|---7---7---7---7-5-7-------7---7---7---7-5-7---------------------|
E|---5---5---5---5-3-5-------5---5---5---5-3-5---------------------|  X4

E|-----------------------------------------------------------------|
B|-----------------------------------------------------------------|
G|-----------------------------------------------------------------|
D|---7---7---7---7-9-7-------7---7---7---7-5-7---------------------|
A|---7---7---7---7-9-7-------7---7---7---7-5-7---------------------|
E|---5---5---5---5-7-5-------5---5---5---5-3-5---------------------|  X8

Ending-
E|-----------------------------------------------------------------|
B|-----------------------------------------------------------------|
G|-----------------------------------------------------------------|
D|-----------------------------------------------------------------|
A|---------------------------/-x--x--x--x-x-x-x-x-x-x~~~-----------|
E|--x--x--x--x-x-x-x-x-x-x-x-/-------------------------------------|
Tap to rate this tab
# A B C D E F G H I J K L M N O P Q R S T U V W X Y Z