Song name
# A B C D E F G H I J K L M N O P Q R S T U V W X Y Z

Misc Unsigned Bands - Anthony Miele - Do Not Worry tab

Standard Tuning (EADGBE)

Intro:

E-----333---------------333-----------|
B-----333----3----------333---3-------|
G-----000------0--------000-----0-----|
D---------------------------------2-0-| 2X
A----------3-----2-0--------3---------|
E--3------------------3---------------|

Verse:

E-----333---------------333-----------           ----333-----------3--0--3--|
B-----333----3----------333---3-------           ----333---3-------3--2--3--|
G-----000------0--------000-----0-----           ----000-----0-----0--2--0--|
D---------------------------------2-0- 3X then   ---------------------2--2--|
A----------3-----2-0--------3---------           --------3-----2-0----0--3--|
E--3------------------3---------------           --3---------------3--------|

E-----333---------------333-----------           ---333------------3--0--0-|
B-----333----3----------333---3-------           ---333----3-------3--3--3-|
G-----000------0--------000-----0-----           ---000------0-----0--0--2-|
D---------------------------------2-0- 3X then   ------------------2--2--0-|
A----------3-----2-0--------3---------           --------3-----2-0-3--2--x-|
E--3------------------3---------------           -3-------------------0--2-|
Tap to rate this tab
 
# A B C D E F G H I J K L M N O P Q R S T U V W X Y Z