Song name
# A B C D E F G H I J K L M N O P Q R S T U V W X Y Z

Misc Unsigned Bands - Owen Pallet - This Is The Dream Of Win And Regine tab

-------------------------------------------------------------------------------
             THIS IS THE DREAM OF WIN AND REGINE - Owen Pallet
-------------------------------------------------------------------------------
Tabbed by: crazy_skater
Email: euan_mckinnon@yahoo.co.uk

BAND WEBSITE: http://www.finalfantasyeternal.com/


Hi everyone, this part is supposed to be played on Violin, but I have adapted it for guitar,
I shall try to figure out the chords for the verses at a later date.

Im pretty sure this is right.............and if it is im well proud of myself for workin 
out lol.


ENJOY!!!  =D


Tuning: EADGBe

e|-18--10-11-13-------10---------------18--10-8-10-11-13-11-10-8-10-8--------|
B|------------11-13-------------------------------------------------11-10-8--|
G|-----------------------------10--------------------------------------------|
D|-----------------------12-13-----------------------------------------------|
A|--------------------------------13-----------------------------------------|
E|---------------------------------------------------------------------------|

e|--18--10-11-13-------10-------------------------------------------|
B|---------------11-13----------------------10--11--10--------------|
G|-------------------------------10-----12--------------12--10------|
D|-------------------------12-13--------------------------------13--|
A|----------------------------------13------------------------------|
E|------------------------------------------------------------------|

e|--18--10-11-13---18--10-11-13--|
B|-------------------------------|
G|-------------------------------|
D|-------------------------------|
A|-------------------------------|
E|-------------------------------|

| /  slide up
| \  slide down
| h  hammer-on
| p  pull-off
| ~  vibrato
| +  harmonic
| x  Mute note
===============================================================================
Tap to rate this tab
# A B C D E F G H I J K L M N O P Q R S T U V W X Y Z