Song name
# A B C D E F G H I J K L M N O P Q R S T U V W X Y Z

Misc Unsigned Bands - 420 Proof - Into The Night tab

Artist: 420 Proof
Song: Into the Night
Album: Here's Your Proof (2009)
Tuning: Drop C
Composer: C. Adams

Intro/Verse
|---------------------------------------------|
|---------------------------------------------|
|---------14---------14---------15---------15-|
|------13---------13---------14---------14----|
|---12---------12---------13---------13-------|
|-0----------0----------0----------0----------|

Chorus Chords
|-------------------------------------|
|-------------------------------------|
|-2--------0--------0--------0--------|
|-0--------0--------2--------0--------|
|-1--------2--------2--------2--------|
|-0--------2--------0--------2--------|

Solo
|------------------------------------|
|------------------------------------|
|------------------------------------|
|-11-13-11-14--12--11-7-9-7-10--7--6-|
|--0--0--0--0---0---0-0-0-0--0--0--0-|
|------------------------------------|

|------------------------------------|
|------------------------------------|
|------------------------------------|
|-11-13-11-14--12--11-7-9-7-10--7--6-|
|--0--0--0--0---0---0-0-0-0--0--0--0-|
|------------------------------------|


|------------------------------------|
|------------------------------------|
|------------------------------------|
|-11-13-11-14--12--11-7-9-7-10--7--6-|
|--0--0--0--0---0---0-0-0-0--0--0--0-|
|------------------------------------|

|-------------------------------------|
|-------------------------------------|
|-------------------------------------|
|-11-13-11-14--15--16-17-18-19-20--21-|
|--0--0--0--0---0---0--0--0--0--0---0-|
|-------------------------------------|
Tap to rate this tab
 
# A B C D E F G H I J K L M N O P Q R S T U V W X Y Z