Song name
# A B C D E F G H I J K L M N O P Q R S T U V W X Y Z

Misc Unsigned Bands - Sk8 - Min Storsta Forsta Karlek tab

Help us improve GuitareTab! Take a short survey!
SK8 was in the junior version of the eurovision song contest competing for Sweden, for a 
of years ago. I found their myspace-website they are using as their official site:
http://profile.myspace.com/index.cfm?fuseaction=user.viewprofile&friendID=262432975

-------------------------------------------------------------------------------
			     Min Storsta Forsta Karlek - SK8
-------------------------------------------------------------------------------
Tabbed by: Dan Krvell
Email: dan.karvell@gmail.com
Tuning: Standard

This song is true easy to play once you get the rythm, and it goes like this all the way around.

e|---------------------------------------------------------------------------|
B|---------------------------------------------------------------------------|
G|-2-2-2\-9--9--9--9---4-4-4\6-6---6--9--------------------------------------|
D|-3-3-3\10-10-10-10---5-5-5\7-7---7-10--------------------------------------|
A|-3-3-3\10-10-10-10---5-5-5\7-7---7-10--------------------------------------|
E|-1-1-1\-8--8--8--8---3-3-3\5-5---5--8--------------------------------------|

| /  slide up
| \  slide down
| h  hammer-on
| p  pull-off
| ~  vibrato
| +  harmonic
| x  Mute note
===============================================================================
Related for Sk8 - Min Storsta Forsta Karlek tab