Song name
# A B C D E F G H I J K L M N O P Q R S T U V W X Y Z

Misc Unsigned Bands - Foij - Awesome Pants tab

Drop D tuning

Guitar 1 (jim)

verse (clean)


|---------------------------------------------------------|
|---------------------------------------------------------|
|7-7-7-7-7-7-7-7-7-7-7-7-7-7-7-7-7-9-9-9-10-10-10-11-11-11|
|5-5-5-5-5-5-5-x-x-x-x-x-x-x-0-0-0-0-0-0-0--0--0--0--0--0-|
|0-0-0-0-0-0-0-7-7-7-7-7-7-7-0-0-0-0-0-0-0--0--0--0--0--0-|
|---------------------------------------------------------|

Chorus (distortion)

|---------------------------------------------------------|------------------|
|---------------------------------------------------------|------------------|
|---------------------9-9-9-9----------------------9-9-9-9|-7-7-9-9-11111212-|
|-5-5--5-5--5-5--5-5-----------2-2--2-2--2-2--2-2---------|------------------|
|-5-5--5-5--5-5--5-5--7-7-7-7--2-2--2-2--2-2--2-2--7-7-7-7|-5-5-7-7-9-9-1010-|
|-5-5--5-5--5-5--5-5-----------2-2--2-2--2-2--2-2---------|-0-0-0-0-0-0-0-0--|

Solo Bit(clean)

|--------------------5--10-----|
|---7------7-------7--7---7----|
|--7-7----7-7-----7-7------(7)-|
|-5-------------0--------------|
|--------7---------------------|
|------------------------------|

quiet chorus, just play the root notes from each chord and palm mute

ending

|-----------------------------------------------------------------|
|-----------------------------------------------------------------|
|-----------------------------------------------------------------|
|5555555555555555555555555552222222222222222222222222222220~------|
|5555555555555555555555555552222222222222222222222222222220~------|
|5555555555555555555555555552222222222222222222222222222220~------|





guitar 2 (Jack)

verse 1 (clean)

|-----------------|
|---------8---7---|
|-7---9-----------|
|-----------------|
|-----------------|
|-----------------|

Chorus (distortion)

|-------------------|
|-------7-----7h8p7-|
|-9-7-7---7-7-------|
|-------------------|
|-------------------|
|-------------------|

verse 2 (clean)

|---------------------------------|
|-----------------8-8-8-7-7-7-7-7-|
|-7-7-7-9-9-9-9-9-----------------|
|---------------------------------|
|---------------------------------|
|---------------------------------|

solo(freestyle somthing along the lines of)

|-----------------------------------------------------------------|
|-8------7------10----------------7--8-----7----------------------|
|------------------------9--9--9---------------9-9-9-9---7--------|
|-----------------------------------------------------------------|
|-----------------------------------------------------------------|
|-----------------------------------------------------------------|

at the end of this chorus there is an outro

|----------------------|
|---------8----7-------|
|-9---7-------------7~-|
|----------------------|
|----------------------|
|----------------------|

in the quiet bit the lead melody is played an octave lower

|-------------------|
|-------------------|
|-------------------|
|-------4-----4h5p4-|
|-7-5-5---5-5-------|
|-------------------|

followed by chorus and outro



Tap to rate this tab
# A B C D E F G H I J K L M N O P Q R S T U V W X Y Z