Guitaretab - guitar tabs
Song name
# A B C D E F G H I J K L M N O P Q R S T U V W X Y Z

Misc Unsigned Bands - Foij - Lets Go To The Moon tab

lets go to the moon tab:


Guitar 1 (jim) - standard or drop D tuning

Intro/Chrous with distortion
and middle 8 (clean with delay or flange) 

|---|    |---|    |---|    |---|   |---|
|---|    |---|    |---|    |---|   |---|
|---|    |---|    |---|    |---|   |---|
|-5-|    |-4-|    |-4-|    |-5-|   |-7-|
|-7-|x16 |-5-|x16 |-2-|x16 |-3-|x7 |-5-|x9
|---|    |---|    |---|    |---|   |---|


Guitar 2 (jack) - Standard or drop D tuning


Chrous

|----------------------------------------|
|-10-12-12-12-8-10-10-10-7-8-8-8-7-8-7-7-|
|----------------------------------------|
|----------------------------------------|
|----------------------------------------|
|----------------------------------------|

Verse 1
[ Tab from: http://www.guitaretab.com/m/misc-unsigned-bands/115889.html ]
|------------------------------------------------|
|------------------------------------------------|
|------------------------------------------------|
|------7-5-4------7-5-4------7-5-4----5------7---|
|-7----------5----------2-----------3---3--5---5-|
|------------------------------------------------|

Verse 2 and 3

|-----------------------------|-----------------------------|
|-----------------------------|-----------------------------|
|-----------------------------|-----------------------------|
|----5-5----5-5---5-5-4-4-5-5-|----5-5----5-5---5-5-4-4-5-5-|
|-7-7---7-7----7-7------------|-5-5---5-5----5-5------------|
|-----------------------------|-----------------------------|

then

|-----------------------------|---------------------------------|
|-----------------------------|---------------------------------|
|-----------------------------|---------------------------------|
|----5-5----5-5---5-5-4-4-5-5-|-----5-5-----5-5-----7-7-----7-7-|
|-2-2---2-2----2-2------------|-3-3-----3-3-----5-5-----5-5-----|
|-----------------------------|---------------------------------|

Related for Foij - Lets Go To The Moon tab
×
Foij - Lets Go To The Moon