Song name
# A B C D E F G H I J K L M N O P Q R S T U V W X Y Z

Misc Unsigned Bands - Dean David - Instrumental tab

-------------------------------------------------------------------------------
			     Instrumental - Dean & David
-------------------------------------------------------------------------------
Tabbed by: Dean D.
Email: Dean0100@yahoo.com

Tuning: Standard- EADGBE

Intro: (Clean)- Play 2 times

e|---------------------------------------------------------------------------|
B|---------------------------------------------------------------------------|
G|------5--------------------------------------------------------------------|
D|----5---5------5---------2---------3---------------------------------------|
A|--3----------5---5-----2---2-----3---3-------------------------------------|
E|-----------3---------0---------1-------------------------------------------|

Verse 1: (Distortion)- Play 2 times

e|---------------------------------------------------------------------------|
B|---------------------------------------------------------------------------|
G|--5-5-5-5-5-5-5------------------------------------------------------------|
D|--5-5-5-5-5-5-5---5-5-5-5-5-5-5---1-1-1-1-1-1-1---5-5-5-5-5-5-5------------|
A|--3-3-3-3-3-3-3---5-5-5-5-5-5-5---3-3-3-3-3-3-3---5-5-5-5-5-5-5------------|
E|------------------3-3-3-3-3-3-3---3-3-3-3-3-3-3---3-3-3-3-3-3-3------------|

Verse 2: (Distortion/Palm Mute)- Play 2 times
e|---------------------------------------------------------------------------|
B|---------------------------------------------------------------------------|
G|--5-5-5-5-5-5-5-5----------------------------------------------------------|
D|--5-5-5-5-5-5-5-5---5-5-5-5-5-5-5-5---1-1-1-1-1-1-1-1---5-5-5-5-5-5-5-5----|
A|--3-3-3-3-3-3-3-3---5-5-5-5-5-5-5-5---3-3-3-3-3-3-3-3---5-5-5-5-5-5-5-5----|
E|--------------------3-3-3-3-3-3-3-3---3-3-3-3-3-3-3-3---3-3-3-3-3-3-3-3----|


Verse 1: (Distortion)- Play 4 times

e|---------------------------------------------------------------------------|
B|---------------------------------------------------------------------------|
G|--5-5-5-5-5-5-5------------------------------------------------------------|
D|--5-5-5-5-5-5-5---5-5-5-5-5-5-5---1-1-1-1-1-1-1---5-5-5-5-5-5-5------------|
A|--3-3-3-3-3-3-3---5-5-5-5-5-5-5---3-3-3-3-3-3-3---5-5-5-5-5-5-5------------|
E|------------------3-3-3-3-3-3-3---3-3-3-3-3-3-3---3-3-3-3-3-3-3------------|


Outro: (Clean)- Play 4 times

e|---------------------------------------------------------------------------|
B|---------------------------------------------------------------------------|
G|------5---------------------------------------------5----------------------|
D|----5---5------5---------2---------3-------x4-------5----------------------|
A|--3----------5---5-----2---2-----3---3--------------3----------------------|
E|-----------3---------0---------1-------------------------------------------|
Tap to rate this tab
# A B C D E F G H I J K L M N O P Q R S T U V W X Y Z