Song name
# A B C D E F G H I J K L M N O P Q R S T U V W X Y Z

Misc Unsigned Bands - Jo Ii - Lone Guitarist tab

-----------------------------------------------------------------------------
			     Jo II - Lone Guitarist
-----------------------------------------------------------------------------
Tabbed by: Clancy 13
Email:wraith.90210

Tuning: standard

Intro Riff x2
e|--------------------------------------------------------------------------|
B|--------14-12-15-14------------14-12-15-14------------14-12-15-14---------|
G|--12-15------------15-14-12-15------------15-14-12-15------------15-14----|
D|--------------------------------------------------------------------------|
A|--------------------------------------------------------------------------|
E|--------------------------------------------------------------------------|

e|---------------------------------------|
B|-------14-12-15-14---------------------|
G|-12-15-------------15-14*--------------|   * = let ring
D|---------------------------------------|
A|---------------------------------------|
E|---------------------------------------|

Heavy main riff x5

e|---------------------------------------------|----|
B|---------------------------------------------|----|
G|---------------------------------------------|----|
D|-2--2--3-3--33-333333--5-5---2-2--22-222222--|-0*-|
A|-2--2--3-3--33-333333--5-5---2-2--22-222222--|-0*-|
E|-0--0--3-3--33-333333--3-3---2-2--22-222222--|-0*-|

filler (palm mute all) 
e|------------------------------|
B|------------------------------|
G|------------------------------|
D|-2-2-22-2-2-2-3333------------|
A|-2-2-22-2-2-2-3333------------|
E|-0-0-00-0-0-0-3333------------|

Filler (not muted, stru;ck hard)
e|------------------------------|
B|------------------------------|
G|------------------------------|
D|-2-2-22-2-2-2-3333------------|
A|-2-2-22-2-2-2-3333------------|
E|-0-0-00-0-0-0-3333------------|

Outro x2

e|----------------------------------------------------------------------|---|
B|----------------------------------------------------------------------|---|
G|-------14-12-15-14------------14-12-15-14------------14-12-15-14------|---|
D|--12-15------------15-14-12-15------------15-14-12-15------------15-14|14*|
A|----------------------------------------------------------------------|---|
E|----------------------------------------------------------------------|---|


Song Order

Intro
Heavy Riff
Filler PM
Filler
Heavy Riff
Heavy Riff
Filler PM
Filler
Intro
Heavy Riff
Outro


plz comment

cj
Tap to rate this tab
 
# A B C D E F G H I J K L M N O P Q R S T U V W X Y Z