Song name
# A B C D E F G H I J K L M N O P Q R S T U V W X Y Z

Misc Unsigned Bands - Metal Skool - Death To All But Metal tab

^ =  pick up
d = pick down


use hammeron's n pulloff's on this first bit

-17-14-16-17-16-14-------------------| < Repeat 4 times
-------------------17-15-14----------|
----------------------------17-------|  from 0:00 to 0:05 seconds
-------------------------------------|
-------------------------------------|
-------------------------------------|


-----------------------------------------------------------|from 0:06 to 0:10
-----------------------------------------------------------|  seconds
-----------------------------------------------------------|
---------4----------4----------4----------4------4--6-7-6--|
-6-6-6-6-2--6-6-6-6-2--6-6-6-6-2--6-6-6-6-2---6--2--4-5-4--|
-4-4-4-4----4-4-4-4----4-4-4-4----4-4-4-4-----4------------|
 ^ d ^ d ^  ^ d ^ d ^  ^ d ^ d ^  ^   ^   ^   ^  d  ^ d ^


--------------------------------------------------------------| Repeat 4 or
--------------------------------------------------------------| 5 times
--------------------------------------------------------------|
--------------------------------------------------------------|
----------------------------------------------------7---------|
-0-0-3-5-6-5-3--0-0-3-5-6-5-3--0-0-3-5-6-5-3--5-6-7---7-6-5---|

thats about it folks .Havent quite figured out the solo yet ,
probably will soon .hope this is of some use to you
Tap to rate this tab
# A B C D E F G H I J K L M N O P Q R S T U V W X Y Z