Song name
# A B C D E F G H I J K L M N O P Q R S T U V W X Y Z

Misc Unsigned Bands - Anthony Miele - Do Not Worry 2 tab

Help us improve GuitareTab! Take a short survey!
Standard Tuning (EADGBE)

Intro:

E-----333---------------333-----------|
B-----333----3----------333---3-------|
G-----000------0--------000-----0-----|
D---------------------------------2-0-| 2X
A----------3-----2-0--------3---------|
E--3------------------3---------------|

Verse:

E-----333---------------333-----------           ----333-----------3--0--3--|
B-----333----3----------333---3-------           ----333---3-------3--2--3--|
G-----000------0--------000-----0-----           ----000-----0-----0--2--0--|
D---------------------------------2-0- 3X then   ---------------------2--2--|
A----------3-----2-0--------3---------           --------3-----2-0----0--3--|
E--3------------------3---------------           --3---------------3--------|

E-----333---------------333-----------           ---333------------3--0--0-|
B-----333----3----------333---3-------           ---333----3-------3--3--3-|
G-----000------0--------000-----0-----           ---000------0-----0--0--2-|
D---------------------------------2-0- 3X then   ------------------2--2--0-|
A----------3-----2-0--------3---------           --------3-----2-0-3--2--x-|
E--3------------------3---------------           -3-------------------0--2-|

Chorus:

E--3--7--7--3          --3--0--3
B--3--8--8--3          --3--2--3
G--0--7--7--0          --0--2--0
D--0--7--9--2 3X then  --0--2--2 2X
A--x--9--7--3          --x--0--3
E--3--7--x--3          --3--x--x

Verse guitar 2:

E-----------------------------------
B-----------------------------------
G--------------------------------7--
D----5------5-7-5-----7------5-7----
A--5---5--7---------5---5-7---------
E-----------------------------------

Solo: improvise

Outro: same as intro
Related for Anthony Miele - Do Not Worry 2 tab