Song name
# A B C D E F G H I J K L M N O P Q R S T U V W X Y Z

Misc Unsigned Bands - Without A Cross - Bleed Sequence tab

Artist: Without a Cross
Song: Bleed Sequence
Album: the Ballad of my Life
Tuning: Guitar 1 - Drop B/Guitar 2 - Drop A
Composer: C. Adams

Intro/Verse
|----------------------|
|----------------------|
|----------------------|
|----------------------|
|-9-9-9-9------9fb-9fb-|
|-7-7-7-7-6760-7fb-7fb-|
          ....

Chorus
|---------------------------------|
|---------------------------------|
|-7-7-7-7-2-3-2---5-5-5-5---------|
|-7-7-7-7-------3-5-5-5-5-2-3-2---|
|-5-5-5-5---------3-3-3-3-------3-|
|---------------------------------|

Bridge
|------------------------------|
|------------------------------|
|------------------------------|
|-0-0-0--2-2-2--7-7-7--5-4-3-2-|
|-0-0-0--2-2-2--7-7-7--5-4-3-2-|
|-0-0-0--2-2-2--7-7-7--5-4-3-2-|

Outro
|--------------------------|
|--------------------------|
|--------------------------|
|--------------------------|
|-99999999----9fb9fb9fb9fb-|
|-7777777767607fb7fb7fb7fb-|
Tap to rate this tab
# A B C D E F G H I J K L M N O P Q R S T U V W X Y Z