Guitaretab - guitar tabs
Song name
# A B C D E F G H I J K L M N O P Q R S T U V W X Y Z

Misc Unsigned Bands - Gorrilla Warfare - Crazy tab

This is crazy by Gorrilla Warfare, this tab is 100% correct! have fun! to here the song 
out myspace.com/gorrillawarfare12


Standard tuning

INTRO: (LISTEN FOR PALM MUTING PATTERN)

e|---------------------------------------------------------------------------|
B|---------------------------------------------------------------------------|
G|---------------------------------------------------------------------------|
D|-11-11-11-11-----9-9-9-9-----9-9-9-9-----9-9-9-9-11-11-11------------------|
A|-11-11-11-11-X2--9-9-9-9-X2--9-9-9-9-x2--9-9-9-9-11-11-11-ALL X2-----------|
E|-9--9--9--9------7-7-7-7-----6-6-6-6-----7-7-7-7-9--9--9-------------------|

VERSE:

e|---------------------------------------------------------------------------|
B|---------------------------------------------------------------------------|
G|------------------4444444444444444-----------------------44444444-6666-----|
D|-4444444444444444-4444444444444444--X2-4444444444444444--44444444-6666-----|
A|-4444444444444444-2222222222222222-----4444444444444444--22222222-4444-----|
E|-2222222222222222----------------------2222222222222222--------------------|

e|---------------------------------------------------------------------------|
B|---------------------------------------------------------------------------|
G|-6666---------------------4444444444444444-----------------------4444444---|
D|-6666-X2-4444444444444444-4444444444444444--6-4-4444444444444444-4444444---|
A|-4444----4444444444444444-2222222222222222--6-4-4444444444444444-2222222---|
E|---------2222222222222222-------------------4-2-2222222222222222-----------|

e|---------------------------------------------------------------------------|
B|---------------------------------------------------------------------------|
G|-66666666------------------------------------------------------------------|
D|-66666666------------------------------------------------------------------|
A|-44444444------------------------------------------------------------------|
E|---------------------------------------------------------------------------|

PRECHORUS:
[ Tab from: http://www.guitaretab.com/m/misc-unsigned-bands/115991.html ]
e|---------------------------------------------------------------------------|
B|---------------------------------------------------------------------------|
G|-4-4-44444444-------------4-4-44444444-66666666----------------------------|
D|-4-4-44444444-44444444-X3-4-4-44444444-66666666----------------------------|
A|-2-2-22222222-44444444----2-2-22222222-44444444----------------------------|
E|--------------22222222-----------------------------------------------------|

CHORUS:

e|---------------------------------------------------------------------------|
B|---------------------------------------------------------------------------|
G|-----------44444444----------4444-6666-------------------------------------|
D|--44444444-44444444-44444444-4444-6666-------------------------------------|
A|--44444444-22222222-44444444-2222-4444-------------------------------------|
E|--22222222----------22222222-----------------------------------------------|

BREAKDOWN: (part with mostly bass and drum)

e|---------------------------------------------------------------------------|
B|---------------------------------------------------------------------------|
G|------------------------------------------------2ph-11-11-11-11-11---------|
D|-4--------------------------------------------------11-11-11-11-11---------|
A|-4--------------------------------------------------9--9--9--9--9----------|
E|-2---2ph-(slide up and down neck muting string)----------------------------|

SOLO: fb=full bend, ph=pinch harmonic,p=pull off,h=hammer on

e|---------------------------------------------------------------------------|
B|--9fb-9fb-9fb~9p7-x2------------------------------------------------9fb----|
G|--------------------8fb-8fb-8fb~8p6-8-6--6-6-6-----------------6ph---------|
D|-----------------------------------------------99-88-77-66-6h7-------------|
A|---------------------------------------------------------------------------|
E|---------------------------------------------------------------------------|

e|-----------------9--------9-9-9-9---9h11p9--9h11p9--9h11p9-9fb-9fb~9-7-----|
B|--9fb-9fb~9-7-9fb-9fb~9-7-9-9-9-9-11------11------11-----------------------|
G|---------------------------------------------------------------------------|
D|---------------------------------------------------------------------------|
A|---------------------------------------------------------------------------|
E|---------------------------------------------------------------------------|

PARTS ORDER:
INTRO
VERSE
PRECHORUS
CHORUS
INTRO
BREAKDWON
PRECHORUS
CHORUS
SOLO
PRECHORUS
CHORUS
INTRO


| /  slide up
| \  slide down
| h  hammer-on
| p  pull-off
[ ph pinch harmonic
| ~  vibrato
| +  harmonic
| x  Mute note
===============================================================================
Related for Gorrilla Warfare - Crazy tab
Advertisement will be closed in 10 seconds