Song name
# A B C D E F G H I J K L M N O P Q R S T U V W X Y Z

Misc Unsigned Bands - Macross Frontier - Aimo tab

 MACROSS FRONTIER ©MACROSS F Big West
                  ©Shouji Kawamori 
 AIMO
 Por ©RODE	
 Espero les guste
e|-------------------|-------------------|----------------|
B|-------------------|-------------------|----------------|
G|-------------------|-------------------|----------------|
D|----15--13--11--10-|----15--18--20--17-|----15-13-11-10-|
A|-13----------------|-13----------------|-13-------------|
E|-------------------|-------------------|----------------|
   Aimo   a - i - mo....
  
e|--------------------------|-------------------|
B|--------------------------|-------------------|
G|--------------------------|-------------------|
D|----15--18--20--17---15~~-|--20--17--15~~-----|
A|-13-----------------------|-------------------|
E|--------------------------|-------------------|


e|----------------------------|--------------------------|
B|----------------------------|--------------------------|
G|----------------------------|--------------------------|
D|-13--15--18-17-15-13-15-----|--18-17-15-13~~15~~~------|
A|----------------------------|--------------------------|
E|----------------------------|--------------------------|

 Verse:                  
e|-------------------------|---------------------------------------|
B|-------------14-13-------|---------------------------------------|
G|--15~~15~~15-------15----|-15-15-13-15-13------------------------|
D|-------------------------|---------------11-11b-15-13-11-13-15---|
A|-------------------------|---------------------------------------|
E|-------------------------|---------------------------------------|

e|-------------------------|---------------------------------------|
B|-------------14-13-------|---------------------------------------|
G|--15~~15~~15-------15----|-15-15-13-15-13------------------------|
D|-------------------------|---------------11-11b-15-13-11-13-15---|
A|-------------------------|---------------------------------------|
E|-------------------------|---------------------------------------|

 Final:
e|-------------------|-------------------|----------------|
B|-------------------|-------------------|----------------|
G|-------------------|-------------------|----------------|
D|----15--13--11--10-|----15--18--20--17-|----15-13-11-10-|
A|-13----------------|-13----------------|-13-------------|
E|-------------------|-------------------|----------------|

  
e|--------------------------|-------------------|
B|--------------------------|-------------------|
G|--------------------------|-------------------|
D|----15--18--20--17---15~~-|--20--17--15~~-----|
A|-13-----------------------|-------------------|
E|--------------------------|-------------------|


e|----------------------------|--------------------------|
B|----------------------------|--------------------------|
G|----------------------------|--------------------------|
D|-13--15--18-17-15-13-15-----|--18-17-15-13~~15~~~------|
A|----------------------------|--------------------------|
E|----------------------------|--------------------------|


 ~~let ring
   Let comment 
   & rate please
Tap to rate this tab
# A B C D E F G H I J K L M N O P Q R S T U V W X Y Z