Song name
# A B C D E F G H I J K L M N O P Q R S T U V W X Y Z

Misc Unsigned Bands - Make Good Your Escape - My Destruction tab

-------------------------------------------------------------------------------
	      my destruction - make good your escape
-------------------------------------------------------------------------------
Tabbed by:hate248
Email:blueshika48@yahoo.com

Tuning:standard

all these are picked extremeley fast

e|-17-------16---12-9-------7------------------------------------------------|
B|---------------------------------------------------------------------------|
G|---------------------------------------------------------------------------|
D|---------------------------------------------------------------------------|
A|---------------------------------------------------------------------------|
E|---------------------------------------------------------------------------|


solo
e|--------------------------------------------9b------|
B|-9-10-9-10--9p10----9p10----------10-9-10-9---------|
G|----------------11-------11p9-----------------------|
D|-----------------------------12---------------------|
A|----------------------------------------------------|
E|----------------------------------------------------|
this part of the solo is also picked fast
e|---------------------------------------------------------------------------|
B|-10----12---14---15---17---19---21--22-------------------------------------|
G|---------------------------------------------------------------------------|
D|---------------------------------------------------------------------------|
A|---------------------------------------------------------------------------|
E|---------------------------------------------------------------------------|


| /  slide up
| \  slide down
| h  hammer-on
| p  pull-off
| ~  vibrato
| +  harmonic
| x  Mute note
===============================================================================
Tap to rate this tab
# A B C D E F G H I J K L M N O P Q R S T U V W X Y Z