Guitaretab - guitar tabs
Song name
# A B C D E F G H I J K L M N O P Q R S T U V W X Y Z

Misc Unsigned Bands - Kelvin Tanjuakio - California tab

-------------------------------------------------------------------------------
			     SONG NAME - Band Name
-------------------------------------------------------------------------------
Tabbed by: Kyle Hadle
Email: Purdue21@aol.com

Tuning:

Intro/verse

e|---------------------------------------------------------------------------|
B|---------------------------------------------------------------------------|
G|----------7-------------7--------------7-------------7---------------------|
D|-------7----7---7---7-----7---7----7-----7---7---7-----7---7---------------|
A|-----5---5----5---5---5-----5----------------------------------------------|
E|---------------------------------7---7-----7---7---7-----7-----------------|

              Like a radio thatís blasting through
                With memoriesí and thought of you

e|---------------------------------------------------------------------------|
B|---------------------------------------------------------------------------|
G|---------------------------------------------------------------------------|
D|----------7-------------7---------------5----------------------------------|
A|------7-----7---7---7-----7---7-----5-----5---5---5---5--------------------|
E|----5---5-----5---5---5-----5-----3---3-----3---3---3---3------------------|
 
               Iím so damn blind and so confused
                Of why you had to leave so soon
[ Tab from: http://www.guitaretab.com/m/misc-unsigned-bands/116006.html ]
e|--------------------------------------------------------------------------|
B|--------------------------------------------------------------------------|
G|-------7--------7---------------------------------------------------------|
D|-------7--------7--------7-------5----------------------------------------|
A|-------5--------x--------7-------5----------------------------------------|
E|----------------7--------5-------3----------------------------------------|
PALM MUTE....................................................

              Distance marks thee end of you and i
              Never thought we end up here but why
       Do I have to sit with nothing left but photographs?
CHORUS
e|---------------------------------------------------------------------------|
B|---------------------------------------------------------------------------|
G|-------7---------7---------------------------------------------------------|
D|-------7---------7-------7----------5--------------------------------------|
A|-------5-----------------7----------5--------------------------------------|
E|-----------------7-------5----------3--------------------------------------|

               And I am sure I love you dare
                 Why do we have to end here
          Face thee facts youíve got be lost
            California her I come at last

Verse 2: same as verse one

Does it hurt to know we might be done
In till you come back to the one
Who fell in love  but fate still won
Cause miles apart can kill someone

PALM MUTE:

Distance marks thee end of are mistake 
Itís a problem I just have to take
Its so hard but I am slowly on my way to you

Chorus:

And I am sure I love you dare
Why do we have to end here
Face thee facts youíve got be lost
California her I come at last

OUTRO:

LASTTTTTTTT LASTTTTTTTTTTTTTTTTT

LASTT LASTTTTTTTTTTTT

Distance marks thee end of you and i
(do you feel the pain)
Never thought we end up here but why
(carry me away)
Do I have to sit with nothing left but photographs?
(out  your heart and soul cant take it anymore)

And I am sure I love you dare
Why do we have to end here
Face thee facts youíve got be lost
California her I come at last

| /  slide up
| \  slide down
| h  hammer-on
| p  pull-off
| ~  vibrato
| +  harmonic
| x  Mute note
=============================================================================
Related for Kelvin Tanjuakio - California tab