Song name
# A B C D E F G H I J K L M N O P Q R S T U V W X Y Z

Misc Unsigned Bands - Straight Outta Jounior High - Boner tab

This is one of my favorites by sojh. I used to look for tabs for this song all the time,
found nothing. So I listened to the song, and tried to learn it by ear. This is what I
so far. I tried to tab the whole song the best I could. Put corrections if you think it 
any. This is my first tab (just thought you should know).Enjoy!

                   Straight Outta Jounior High- Boner

        Tabbed by:NIRVANAPLAYER
        Email:mgtearley@verizon.net
 Intro:
e|-----------------------------------------------------------------------------|
B|-----------------------------------------------------------------------------|
G|-----------------------------------------------------------------------------|
D|--9-9-9-9-9-----7-----5-5-5--7-7-7-------------------------------------------|
A|--9-9-9-9-9-----7-----5-5-5--7-7-7-------------------------------------------|
E|--7-7-7-7-7-----5-----3-3-3--5-5-5-------------------------------------------|
  Verse 1:
  "Gotta boner..."
e|-----------------------------------------------------------------------------|
B|-----------------------------------------------------------------------------|
G|-7-------------7-------------------------------------------------------------|
D|-7-----7-5---7-7----7-5--7---------------------------------------------------|
A|-5-----7-5---7-5----7-5--7---------------------------------------------------|
E|-------5-3---5------5-3--5---------------------------------------------------|
  Thats basicly the only parts of the song that you need to know for chords, but this
part is in the part of the song where stu and nate are talking to each other. You'll have
listen in order to know whene to start playing this part below. This part is palm muted.
e|---------------------------------------------------------------------------|
B|---------------------------------------------------------------------------|
G|---------------------------------------------------------------------------|
D|--9-9-9-9-9----7----5-5-5---7----------------------------------------------|
A|--9-9-9-9-9----7----5-5-5---7----------------------------------------------|
E|--7-7-7-7-7----5----3-3-3---5----------------------------------------------|

    Thats it!
Tap to rate this tab
# A B C D E F G H I J K L M N O P Q R S T U V W X Y Z