Song name
# A B C D E F G H I J K L M N O P Q R S T U V W X Y Z

Misc Unsigned Bands - Anthony Miele - Day 1 tab

From the album "Be Ready"

Standard tuning: (EADGBE)

Intro:

E-------------------------------------|
B---7-7-7-7-5-5-5-5-7-7-7-7-5-5-5-----|
G----7-7-7-7-7-7-7-7-7-7-7-7-7-7-7-7--|
D---------------------------------8---|
A-------------------------------------|
E-------------------------------------|


Intro guitar 2: same as verse (:19)

Verse: (:38, 1:26)

E-----------------------------------------------|
B---7---777----7----777---7----777---777-7-7----|
G---7---777----7----777---7----777---777-7-7----|
D----------------------------------------0-0----|
A-55--55----------------77--77------------------|
E------------55--555---------------77---7-6-----|

Chorus: (:57, 2:04)

E--0--0--3--           --------|
B--3--1--3--           --------|
G--2--0--0--           --7--9--|
D--0--2--0-- 3X then   --0--8--| then back to intro/verse
A--0--3--x--           --5--7--|
E--------3--           --6--0--|

Solo: (2:24)

E------------7-------------------------------------|
B------7--10--7----------777-------7---------------|
G--7h9----------9-7-7h9------9-7h9--9----7-7h977---|
D-------------------------------------789----------|
A--------------------------------------------------|
E--------------------------------------------------|

Solo cont:

E-------------------------------------------|
B--777-------7-10-7----7-10-7---------------|
G------9-7h9-------9----------9-7-7h9-77----|
D----------------------8------8---8---------|
A-------------------------------------------|
E-------------------------------------------|

Chorus: (2:42)

Solo 2: (2:45)

E-12-------------------------------------------------------------------|
B----10-10h12------------------------------10--7--7-8-10-8-7-----------|
G-------------9-7----------------77h9----7-------9-9-9--9-9-9-7--7-9-7-|
D------------------5h75------7h9------7h9-----------------------8------|
A-----------------------7-5--------------------------------------------|
E----------------------------------------------------------------------|

(3:02)

E-------------------------------|
B-------------------------------|
G------77-----9-7-----77--------|
D--789----789-----789----9-7-0--|
A-------------------------------|
E-------------------------------|

Outro: same as intro
Tap to rate this tab
 
# A B C D E F G H I J K L M N O P Q R S T U V W X Y Z