Guitaretab - guitar tabs
Song name
# A B C D E F G H I J K L M N O P Q R S T U V W X Y Z

Misc Unsigned Bands - Cusco - Apurimac Ii tab

Artis: Cusco
Song: Apurimac II
Tabbed by: Juan David Lopez
Duration: 1min. 30sec.
Tuning: Standard (EADGBe)

Lead Guitar:
|---------------------------------------------|
|---------------------------------------------|
|--------2--4h5----4p2--4~----0--0--2h4--2~---|
|---------------------------------------------|
|---------------------------------------------|
|---------------------------------------------|(Play twice)

|---------------------------------------------|
|---------------------------------------------|	
|--------55fb----7p5---7~----4--4-5h7--5~---|
|---------------------------------------------|
|---------------------------------------------|
|---------------------------------------------|

|---------------------------------------------|
|---------------------------------------------|
|--------2--4h5----4p24~----0--02h4--2~-///-|
|---------------------------------------------|
|---------------------------------------------|
|---------------------------------------------|

|--------------------------------------------------------------------|
|--------------------------------------------------------------------|
|--/14--14--16h17--16p14-16~---12h14--14h16-14h16--14p12--14h16-14~--|
|--------------------------------------------------------------------|
|--------------------------------------------------------------------|
|--------------------------------------------------------------------|
[ Tab from: http://www.guitaretab.com/m/misc-unsigned-bands/116170.html ]
|--------------------------------------------------------|
|--------------------------------------------------------|
|---14--14--16h17--16p14-16~---12h14--14h16--14p12--14~--|
|--------------------------------------------------------|
|--------------------------------------------------------|
|--------------------------------------------------------|

|--------------------------------------------------------------------|
|--------------------------------------------------------------------|
|----13-15-15h17-15h17-15h17p15-15~---12-13-13h15-13h15-13h15p13-13~-|
|--------------------------------------------------------------------|
|--------------------------------------------------------------------|
|--------------------------------------------------------------------|

|--------------------------------------------------------------|
|--------------------------------------------------------------|
|----14--14--16h17--16p14-16~---12h14--14h16-14h16--14p12-14~--|
|--------------------------------------------------------------|
|--------------------------------------------------------------|
|--------------------------------------------------------------|

|--15h17-17--15h17-17--15h17-1717p15-15~------15----15----15-------------|
|-------------------------------------------17----16----15----13h15p13----|
|----------------------------------------------------------------------14~|
|-------------------------------------------------------------------------|
|-------------------------------------------------------------------------|
|-------------------------------------------------------------------------|(Play twice)

[Tab to be continued...]

Legend:
-------

h = hammer on
p = pull off
~ = vibrato
/ = slide (glisando)








Related for Cusco - Apurimac Ii tab