Song name
# A B C D E F G H I J K L M N O P Q R S T U V W X Y Z

Misc Unsigned Bands - Swing Low - Convictionless Convictions tab

-------------------------------------------------------------------------------
			     Convictionless Convictions - Swing Low
-------------------------------------------------------------------------------
Tabbed by:
Email:

Tuning: Drop B

e|---------------------------------------------------------------------| 
B|---------------------------------------------------------------------|
G|---------------------------------------------------------7-7-5-5p4h5-|2x
D|-7-7-7-7--7-7-7-7--1010109--9-9--------3-3-3-3--3-3-3-3--3-3-3-3-----|
A|-7-7-7-7--7-7-7-7--7-7-7-7--7-7-7h10---3-3-3-3--3-3-3-3--3-3-3-3-----|
E|-7-7-7-7--7-7-7-7--7-7-7-7--7-7-7-7----3-3-3-3--3-3-3-3--3-3-3-3-----|
                                
e|-------------------------------------|
B|-------------------------------------|
G|-------------------------------------|2x
D|-7-7-7-7-7-77-10\9------10\9---------|
A|-7-7-7-7-7-77-----10/12-----10/12----|
E|-7-7-7-7-7-77------------------------|

e|----------------------------------------------------8-8-8--------------|
B|----------------5h6p5-------------------------6-6-6-------5------------|
G|----------------------5-5-4p0------------------------------------------|
D|-3-3-3-3-3--3-3----------------3-3-3-3-3--3-3--------------------------|
A|-3-3-3-3-3--3-3----------------3-3-3-3-3--3-3--------------------------|
E|-3-3-3-3-3--3-3----------------3-3-3-3-3--3-3--------------------------|

| /  slide up
| \  slide down
| h  hammer-on
| p  pull-off
| ~  vibrato
| +  harmonic
| x  Mute note
===============================================================================
Tap to rate this tab
# A B C D E F G H I J K L M N O P Q R S T U V W X Y Z