Song name
# A B C D E F G H I J K L M N O P Q R S T U V W X Y Z

Misc Unsigned Bands - Anthony Miele - Opening Jam tab

From the album "Take A Stand"

Standard tuning (EADGBE)

Guitar 1:

E------------------------------------------------------|
B------------------------------------------------------|
G----10---10-9-7---------------------------------------|
D----10----------10-8-8--8--8h10-8---------------------| Repeat
A--8----8-------------10-10--------10-8---------8-10-8-|
E---------------------------------------10-8-10--------|

Guitar 2:

E----------------------10----------------------------------------|
B--------13-10------------13-------10----------------------------|
G--10-10-------12------------12-12----12-10----------10h12-10-10-|
D----------------10h12----------------------12-10h12-------------| Repeat
A----------------------------------------------------------------|
E----------------------------------------------------------------|

Guitar 3:

E----------------------------------|
B----------------------------------|
G-------------------3-----3-----5--|
D---3-----3-----5------------------| Repeat
A-----------------1---1-1---1s3----|
E-1---1-1---1s3--------------------|

Guitar 1 - 24X
Guitar 2 - 12X
Guitar 3 - 12X
Tap to rate this tab
# A B C D E F G H I J K L M N O P Q R S T U V W X Y Z