Song name
# A B C D E F G H I J K L M N O P Q R S T U V W X Y Z

Misc Unsigned Bands - Lights And Sounds - Once In A Lifetime tab

-------------------------------------------------------------------------------
			     Once In A Lifetime - Lights And Sounds
-------------------------------------------------------------------------------
Tabbed by: Nvfx
Email: nvfx11@googlemail.com

Tuning: Standard

The picking pattern for the most part of the song is pretty much the same. It's just the 
note (A string) and B string picked at the same time, followed by the two strings in between.

For example: (The introduction)

      G                  D                Em               C
e|-------------------------------------------------------------------------|
B|----12--------12-------7--------7-------8--------8-------5--------5------|
G|-----------12----------------7----------------9----------------5---------|
D|--------12----------------7----------------9----------------5------------|
A|----10--------10-------5--------5-------7--------7-------3--------3------|
E|-------------------------------------------------------------------------|


     Em               D                C
e|-------------------------------------------------------------------------|
B|---8--------8-------7--------7-------5--------5-----5--------------------|
G|---------9----------------7----------------5-----------------------------|
D|------9----------------7----------------5--------------------------------|
A|---7--------7-------5--------5-------3--------3--3-----------------------|
E|-------------------------------------------------------------------------|


Verse 1
G                F
   If you could see
Em                   D                C
   That this is the way things should be
           Bm               C    D
Then you wouldn't have to leave me, no
Em             D
   I see your eyes they gleam
C                   Bm              A
   Your moves they make me keen to lose control


Fill
        Cadd9         C  Cmaj7
e|--------------------------------------|
B|------3--------3----1--0--------------|
G|------------0-------0--0--------------|
D|---------2----------2--2--------------|
A|------3----------3--3--3--------------|
E|--------------------------------------|


Chorus
C               D
   And I could see
Em
   Romance, it was swinging from the trees
C                         D
   And I could see them dance
Em
   Until there were bruises on their feet
C                 D
   But they di'nt care
Em
   If people stopped and stared
C                D
   No they di'nt mind
Em
   'Cos this type of thing comes once in a lifetime

Solo:
e|-------------------------------------------------------------------------------------|
B|-------------------------------------------------------------------/10---7-7---8-8---|
G|-----/12-12-12-11-12--11---------------------/12-12-12-11-12--11---------------------|
D|------------------------12/9----7/9-7-10-10------------------------------------------|
A|-------------------------------------------------------------------------------------|
E|-------------------------------------------------------------------------------------|


Verse 2
G                F
   And here we stand
Em                  D              C
   And I'm knowing what will come next
        Bm                    C    D
But to tell you the truth I'm scared
Em                       D
   Because you looks so beautiful
C            Bm               A           Cadd9   C   Cmaj7
   When I go by the though of us without this

Chorus
C               D
   And I could see
Em
   Romance, it was swinging from the trees
C                         D
   And I could see them dance
Em
   Until there were bruises on their feet
C                 D
   But they di'nt care
Em
   If people stopped and stared
C                D
   No they di'nt mind
Em
   'Cos this type of thing comes once in a lifetime


Good luck!
Tap to rate this tab
# A B C D E F G H I J K L M N O P Q R S T U V W X Y Z