Song name
# A B C D E F G H I J K L M N O P Q R S T U V W X Y Z

Misc Unsigned Bands - Dark Anger - Ellipses tab

RIFF 1
B|-------1--------|----1---------|-------0----|-------1--------|
G|--------2--(4x)-|-----2--(4x)--|--------1---|--------2-------|
D|-----0----------|---2----------|------2-(4x)|-----2------(4x)|
A|----3-----------|--0-----------|-----2------|----0-----------|
      G                Gadd9             G
|---------------| -----------------|--------------------------------|
|------3--------|---------3--------|-------3------------------------|
|-------0--(4x)-|----------0--(4x)-|---------0--(4x)----------------|
|-----0---------|-------2----------|------0-------------------------|
|----2----------|------3-----------|--------------------------------|
|---------------|------------------|----3---------------------------|

RIFF 2
|--------------------------------------------------------------------|
|----------15-16-15--------------------16-15^^^--(2x)----------------|
|----15--17---------17^^^---17-17-17-15------------------------------|
|--------------------------------------------------------------------|
|--------------------------------------------------------------------|
|--------------------------------------------------------------------|

|--------------------------------------------------------------------|
|--\7^^^--------7-8-7--------------8-7^^^^---------------------------|
|----------7--9-------7^^---9-9-9-7-----(2x)-------------------------|
|--------------------------------------------------------------------|
|--------------------------------------------------------------------|
|--------------------------------------------------------------------|
Tap to rate this tab
# A B C D E F G H I J K L M N O P Q R S T U V W X Y Z