Song name
# A B C D E F G H I J K L M N O P Q R S T U V W X Y Z

Misc Unsigned Bands - Flatline Red - Ktfa tab

Flatline Red
K.T.F.A.
Heart Attack 2008
CGCFAD

intro - clean with delay
---------------------------------------------------------------------|
---------------------------------------------------------------------|
---------------------------------------------------------------------|
--------7--------8----------8------------10-----------8-----7-----8--|
--5---------5---------5-----------8-------------8--------------------|
---------------------------------------------------------------------|


---------------------------------------------------------------------|
---------------------------------------------------------------------|
---------------------------------------------------------------------|
--------7--------8----------8------------10-----8-----7-----8-----7--|
--5---------5---------5-----------8----------------------------------|
---------------------------------------------------------------------|


bridge to verse (x2) (distorted)
-----------------------------------------------------------------------------|
-----------------------------------------------------------------------------|
-----------------------------------------------------------------------------|
--777777--888888---1010101010101010-------777777--888888---1010101010101010--|
--555555--555555---888888---777777-------555555--555555---888888--888888-----|
------------------------------------------------------------------888888-----|

verse
--------------------------------------------------------------------|
--------------------------------------------------------------------|
--------------------------------------------------------------------|
---7777xx8888xx1010xx1010xx---7777xx8888xx1010xx1010xx--------------|
---5555xx5555xx8888xx7777xx---5555xx5555xx8888xx8888xx--------------|
----------------------------------------------xx8888xx--------------|

chorus
------------------------------------------|
------------------------------------------|
------------------------------------------|
------------------------------------------|
--5-5555---7-7777---8-8888--10--10101010--|
--5-5555---7-7777---8-8888--10--10101010--|

outro chorus

-----------------------------------------------------|
-----------------------------------------------------|
-----------------------------------------------------|
-----------------------------------------------------|
---0--2---3---5-------0---2--------------------------|
---0--2---3---5-------0---2----5---3---2--3-2/3/2/0--|
                               pinch***************
Tap to rate this tab
# A B C D E F G H I J K L M N O P Q R S T U V W X Y Z