Song name
# A B C D E F G H I J K L M N O P Q R S T U V W X Y Z

Misc Unsigned Bands - Mattrach - Dark Paradise tab

this is the intro for the lead guitar

mattrach-dark paradise


e--------------------15--13h15p13-s-11--18-15---------------------------|
b--8s--13--15-16-18---------------------------16p15-s-11--11-s-9-s-8----|
g-----------------------------------------------------------------------|
d-----------------------------------------------------------------------|
a-----------------------------------------------------------------------|
e-----------------------------------------------------------------------|


e----------------------------------------------|
b-------11s13s11s13--s8-------13s15s13s15-s-8--|
g--s12-------------------s12-------------------|
d----------------------------------------------|
a----------------------------------------------|
e----------------------------------------------|


e---------------------------------------------------15--|
b-------11s13s11s13----s8-------13s15s13s15-s-16-18-----|
g--s12---------------------s12--------------------------|
d-------------------------------------------------------|
a-------------------------------------------------------|
e-------------------------------------------------------|
Tap to rate this tab
# A B C D E F G H I J K L M N O P Q R S T U V W X Y Z