Song name
# A B C D E F G H I J K L M N O P Q R S T U V W X Y Z

Misc Unsigned Bands - Upon Beauty Rests - Lines Full Of Lies And A Thousand Roses tab

Tabbed by: Austin
Email: austinscott1994@aol.com


             
e|-----|-----------------------------|      
B|--x--|-----------------------------|       
G|--x--|-9-9-9-9-----11-11-11-11--6s5|  
D|--x-0|-x-x-x-x-0-0-x - x -x -x--xsx|
A|--x-0|-7-7-7-7-0-0-9 - 9 -9 -9--4s3|
D|--x-0|---------0-0-----------------|
        |____________x2_____________|        

e|----------------------------------------|
B|----------------------------------------|
G|-8-7-8-10-8-7h8p7-----8-7-8-10-8-7h8p7--|
D|------------------10-------------------9|            
A|----------------------------------------|
D|----------------------------------------|
  |________________x3____________________|


1:09 - 1:30
e|----------------------------------|
B|----------------------------------|
G|----------------------------------|
D|----------------------------------|
A|--7-7-7-7-7-7-7-7-5-5-5-5-5-5-5-5-|
D|--5-5-5-5-5-5-5-5-3-3-3-3-3-3-3-3-|

1:31 - 1:51
e|-------------------------------------------------------------------|
B|------------------------9s10s9s109s10s9s10-11s12s11s12s11s12s11s12-|
G|-------------------------------------------------------------------|
D|9-9-9-9-9-9-9-9-9-9-9-9--------------------------------------------|
A|7-7-7-7-7-7-7-7-7-7-7-7--------------------------------------------|
D|-------------------------------------------------------------------|
  . . . . . . . . . . . .


1:52 - 2:02
e|------------------------------------------------------------|
B|------------------------------------------------------------|
G|------------------------------------------------------------|
D|--0-0-0-5-0-0---0-0-0-5-0-0--0-0--0-0-0-3-0-0--0-0-0-3-0-0--|
A|--0-0-0-3-0-0---0-0-0-3-0-0--0-0--0-0-0-1-0-0--0-0-0-1-0-0--|
D|--0-0-0---0-0---0-0-0---0-0--0-0--0-0-0---0-0--0-0-0---0-0--|
    . . .   . .   . . .   . .  . .  . . .   . .  . . .   . . 

2:03 - 2:23
e|--------------------------------------------------------------------------|
B|--------------------------------------------------------------------------|
G|--------------7-7-7-7-7-7-----------7-----7-------------------------------|
D|--0-0-0-7-0-0-x-x-x-x-x-x-0-0-7-0-0-x-0-0-x--0-0-0-5-0-0--0-0-0-5-0-0--0-0|
A|--0-0-0-5-0-0-5-5-5-5-5-5-0-0-5-0-0-5-0-0-5--0-0-0-3-0-0--0-0-0-3-0-0--0-0|
E|--0-0-0---0-0-------------0-0---0-0---0-0----0-0-0---0-0--0-0-0---0-0--0-0|
    . . .   . .             . .   . .   . .    . . .   . .  . . .   . .  . .  
I'm not sure about 2:24 - 2:28

2:29 - 2:50
e|----------------------------------|
B|----------------------------------|
G|----------------------------------|
D|----------------------------------|
A|--7-7-7-7-7-7-7-7-5-5-5-5-5-5-5-5-|
D|--5-5-5-5-5-5-5-5-3-3-3-3-3-3-3-3-|


2:51 - 3:11
e|----------------------------------------|
B|----------------------------------------|
G|-8-7-8-10-8-7h8p7-----8-7-8-10-8-7h8p7--|
D|------------------10-------------------9|            
A|----------------------------------------|
D|----------------------------------------|

3:12 - 3:57                                             1st time   2nd time
e|-------------------------------|----------------------|------|-----------|
B|-------------------------------|----------------------|------|-----------|
G|0~ ----------------------------|----------------------|9-9-9-|-----------|
D|0~ 0-0-0-0-0-0-7~ 0--0-0-0-0-0-|-0--0-0-0-0-0-0-0-0-7~|x-x-x-|10-98787654|
A|0~ 0-0-0-0-0-0-7~ 0--0-0-0-0-0-|-0--0-0-0-0-0-0-0-0-7~|7-7-7-|-----------|
D|0~ 0-0-0-0-0-0-7~ 0--0-0-0-0-0-|-0--0-0-0-0-0-0-0-0-7~|------|-----------|
     . . . . . .    |____x3_____|     . . . . . . . .           .  ........

3:58 - 4:19
e|----------------------------------|
B|----------------------------------|
G|----------------------------------|
D|----------------------------------|
A|--7-7-7-7-7-7-7-7-5-5-5-5-5-5-5-5-|
D|--5-5-5-5-5-5-5-5-3-3-3-3-3-3-3-3-|

4:20 - 4:40
e|----------------------------------------|
B|----------------------------------------|
G|-8-7-8-10-8-7h8p7-----8-7-8-10-8-7h8p7--|
D|------------------10-------------------9|            
A|----------------------------------------|
D|----------------------------------------|

4:41 - 4:57
e|---------------|
B|---------------|
G|---------------|
D|7---7~ 7--7--7~|
A|7---7~ 7--7--7~|
E|7---7~ 7--7--7~|


I hope that these tabs are good, if you find any mistakes, please let me know, thanks
Tap to rate this tab
# A B C D E F G H I J K L M N O P Q R S T U V W X Y Z