Song name
# A B C D E F G H I J K L M N O P Q R S T U V W X Y Z

Misc Unsigned Bands - 24 Hours Left - 24 Hours Left tab

This Is My Bands First Made And Recorded Song
Tabbed By Jordan Ault
JORDANAULTepsspaYOURFACE@live.co.uk

Clean
|---------------------------------||---------------------------------|
|---------------------------------||---------------------------------|
|---------------------------------||---------------------------------|
|---------------------------------||---------------------------------|
|---3-2-----3-2-----3-2-----------||---3-2-----3-2-----3-2-----------|
|-1-------1-------1-------0-------||-1-------1-------1-------0-------|
pm-------------------------------------------------------------------|

Distortion
|---------------------------------||---------------------------------|
|---------------------------------||---------------------------------|
|---------------------------------||---------------------------------|
|---------------------------------||---------------------------------|
|-3-3-2~--3-3-2~--3-3-2~--2-------||-3-3-2~--3-3-2~--3-3-2~--2--3*~--|
|-1-------1-------1-------0-17\\\-||-1-------1-------1-------0-------|


|---------------------------------||---------------------------------|
|---------------------------------||---------------------------------|
|---------------------------------||---------------------------------|
|---------------------------------||---------------------------------|
|-3-3-2~--3-3-2~--3-3-2~--2-------||-3-3-2~--3-3-2~--3-3-2~--2-------|
|-1-------1-------1-------0-17\\\-||-1-------1-------1-------0--3*~--|


|---------------------------------||---------------------------------|
|---------------------------------||---------------------------------|
|---------------------------------||---------------------------------|
|---------------------------------||---------------------------------|
|-3-3-2~--3-3-2~--3-3-2~--2-2-2-2-||-3-3-2~--3-3-2~--3-3-2~--2-2-2-2-|
|-1-------1-------1-------0-0-0-0-||-1-------1-------1-------0-0-0-0-|

Tap to rate this tab
# A B C D E F G H I J K L M N O P Q R S T U V W X Y Z