Song name
# A B C D E F G H I J K L M N O P Q R S T U V W X Y Z

Misc Unsigned Bands - Off With Their Heads - Fuck This Im Out tab

Highlighted       Show chord diagrams
Intro: C

C                     F
I'm counting down the days 
C                       F           G
'Til I can get the fuck out of this place. I
C                      F
swear I'm never coming back 
C                   F            G
'Cause I found everything that I lack


        F            G
I found comfort in a land far away
      C                 G          F
Where I don't feel like I've got a foot in the grave
           F                   G
It's not about you, it's about me
                C      F
Please leave me alone
         C      G
Leave me alone


C              F
I'm so sick of fighting
C                        F      G
With every single person that I know and
C              F
I'm so sick of lying
C             F         G
And burying myself in a hole


       F                 G
I just want to fill that tank up and drive
C               G              F
Only thing that still makes me feel I'm alive
          F                    G
It's not about you, it's about me
                C      F
Please leave me alone
         C      G
Leave me alone

[Solo]
    C
G  :----9---9---7-9-|10---9-------------|----9---9---7-9-|10---9--------9---|
D  :----------------|---------10--------|----------------|---------10-------|
A  :----------------|--------------10---|----------------|------------------|

    G
G  :7--------------7-|9---7-------------|----7---7------7-|9---7--------7---|
D  :------------10---|--------10--------|------------10---|--------10-------|
A  :-----------------|-------------10---|-----------------|-----------------|

    C
G  :-----9---9---7-9-|10---9-------------|----9---9---7-9-|10---9--------9---|
D  :10---------------|---------10--------|----------------|---------10-------|
A  :-----------------|--------------10---|----------------|------------------|

    G
G  :7--------------7-|9---7-------------|----7---7------7-|9-----------*---|
D  :------------10---|--------10--------|------------10---|----------------|
A  :-----------------|-------------10---|-----------------|----------------|

        F               G
I don't think I'll ever make it out alive
  C             G           F
I might as well just kill myself tonight, yeah
  C             G           F
I might as well just kill myself tonight
F
I don't want to
      G                C   Cmaj7, Am, G
But I don't see any other way


F
I don't want to
      G                C   Cmaj7, Am, G
But I don't see any other way
F
I don't want to
      G                C       F
But I don't see any other way
       C       F
Any other way
       C       F
Any other way
       C       F, G, C
Any other way
Tap to rate this tab
# A B C D E F G H I J K L M N O P Q R S T U V W X Y Z