Song name
# A B C D E F G H I J K L M N O P Q R S T U V W X Y Z

Misc Unsigned Bands - Adopted - Take Away tab

			     TAKE AWAY - Adopted

Tabbed by: Salamandemr

Capo 7

Verse/Intro
e|-----------------------------------------------------------------|
B|-----3------0-----0-----0-----3-----0-------1-------1------------|
G|---2------0-----0-----0-----2-----0-------0-------0---0----------|
D|-0------2-----0-----0-----0-----2-----0h2-----0h2----------------|
A|-----------------------------------------------------------------|
E|-----------------------------------------------------------------|

Chorus
e|-2--0--3---2--0--0---|
B|-3--0--0---3--0--1---|
G|-2--0--0---2--0--0---|
D|-0--2--0---0--2--2---|
A|----2--0h2----2--3---|
E|----0--3------0------|

Bridge
e|-0--0--0--0----|
B|-1--1--1--0----|
G|-2--0--0--0----|
D|-2--2--2--2----|
A|-0--0--3--3----|
E|---------------|
Tap to rate this tab
 
# A B C D E F G H I J K L M N O P Q R S T U V W X Y Z