Song name
# A B C D E F G H I J K L M N O P Q R S T U V W X Y Z

Misc Unsigned Bands - Flatline Red - Game Over tab

Game Over
Flatline Red
Heart Attack (2008)
CGCFAD


verse w/ slight delay
---7-7-7-10-10--9-9---------7-7-7-10-10--9-9-----------7-7-7-10-10--9-9-----------7-7-7-10-10--9-9|
0-----------------------0-------------------------------------------------------------------------|
------------------------------------------------0----------------------------0--------------------|
--------------------------------------------------------------------------------------------------|
--------------------------------------------------------------------------------------------------|
--------------------------------------------------------------------------------------------------|


prechorus
--7-7-7-7-7-7-7-7--9-9-9-9-9-9-9-9----7-7-7-7-5-5-5-5---99101099---99101099------------|
---------------------------------------------------------------1010-------1010---------|
---------------------------------------------------------------------------------------|
---------------------------------------------------------------------------------------|
--5-5-5-5-5-5-5-5---7-7-7-7-7-7-7-7----5-5-5-5-5-5-5-5--7-7-7-7-7-7-7-7-7-7-7----------|
--5-5-5-5-5-5-5-5---7-7-7-7-7-7-7-7----5-5-5-5-5-5-5-5--7-7-7-7-7-7-7-7-7-7-7----------|


chorus
-----------------------------------------------------------------------------|
-----------------------------------------------------------------------------|
-----------------------------------------------------------------------------|
----------------------------------------------------5-5-5-5-5-5-5-5-5--------|
--0/2--0--5--3------0/2--0--5--3-----0/2--0--5--3---3-3-3-3-3-3-3-3-3--------|
--0/2--0--5--3------0/2--0--5--3-----0/2--0--5--3----------------------------|


breakdown
-----------------------------------------------------------------------|
-----------------------------------------------------------------------|
-----------------------------------------------------------------------|
-----------------------------------------------------------------------|(x4)
-10-10-77-8-8-55--10-10-77-8-8-55---10-10-77-8-8-55---10-10-77-8-8-55--|
------------------------------------10-10-77-8-8-55---10-10-77-8-8-55--|
palmed****************************

--------------------------------------------------------------------------------|
--------------------------------------------------------------------------------|
--------------------------------------------------------------------------------|
--------------------------------------------------------------------------------|
---0----0----0---------5-5-2-2-3-3-0-0---5-5-2-2-3-3-0-0------------------(x2)--|
---0----0----0---------5-5-2-2-3-3-0-0---5-5-2-2-3-3-0-0------------------------|

-------------------------------------------------------------------------------------------|
-------------------------------------------------------------------------------------------|
-------------------------------------------------------------------------------------------|
-------------------------------------------------------------------------------------------|
-------------------------------------------------------5-5-2-2-3-3-0-0----5-5-2-2-3-3-0-0--|
--5-5-2-2-3-3-0-0----5-5-2-2-3-3-0-0-------5-5-2-2-3-3-0-0----------------5-5-2-2-3-3-0-0--|
palmed*******************************


-------------------------------------------------------------------------------------|
-------------------------------------------------------------------------------------|
-------------------------------------------------------------------------------------|
----5/7-7-7/8-8-8/10-10------7/8-8-8/10-10-10/12-12------8/10-10-10/12-12------------|
-0-0---------------------0-0--------------------------0-0----------------------------|
-0-0---------------------0-0--------------------------0-0----------------------------|


breadown ending #1
----------------------------------------------------------------------|
----------------------------------------------------------------------|
----------------------------------------------------------------------|
--------10/12-12-12-12/14-14-14-14/15-15--15--------------------------|
--0-0-----------------------------------------------------------------|
--0-0-----------------------------------------------------------------|

breakdown ending #2
-------------------------------------------------------------------|
-------------------------------------------------------------------|
-------------------------------------------------------------------|
---------15--14--12-14-14--12-10--12--10/12/10--8------------------|
--0-0--------------------------------------------------------------|
--0-0--------------------------------------------------------------|
Tap to rate this tab
# A B C D E F G H I J K L M N O P Q R S T U V W X Y Z