Song name
# A B C D E F G H I J K L M N O P Q R S T U V W X Y Z

Misc Unsigned Bands - Flatline Red - Thanks For Nothing tab

Help us improve GuitareTab! Take a short survey!
Thanks for Nothing
CGCFAD

intro
---------------------------------------------------------------------|
-------------7-(let ring)--------------------------------------------|
------5--------------------------------------------------------------|
---------------------------------------------------------------------|
---------------------------------------------------------------------|
---------------------------------------------------------------------|
harmonics....


Chorus 1 riff
--------------------------------------------------------------------------|
--------------------------------------------------------------------------|
---9--9--9----------------------------------------------------------------|
--------------10--10--10---9--9--9--12--12--12---10--10--9--9-------------|
---7--7--7---7----7---7----7--7--7---7----7----7----7----7---7--7---------|
---7--7--7---7----7---7----7--7--7---7----7----7----7----7---7--7---------|

------------------------------------------------------------------------------------------------|
------------------------------------5*-------------------------------------------------5*-------|
-----------------------------------------5*---------------------------------------------------5*|
------------------------------------------------------------------------------------------------|
---3-3-3----3----3-3-3-3-------------------------3-3-3----3----3-3-3-3--------------------------|
---3-3-3----3----3-3-3-3-------------------------3-3-3----3----3-3-3-3--------------------------|
                                    harmonic*

verse
----------------------------------------------------------------------|
----------------------------------------------------------------------|
----------------------------------------------------------------------|
----------------------------------------------------------------------|
---7-7-7-----7-----7-7-7-7----7----7-7-7-7----7----7-7-7-7----7----7--|
---7-7-7-----7-----7-7-7-7----7----7-7-7-7----7----7-7-7-7----7----7--|
palmed**           *******         *******         *******

---------------------------------------------------------------------------------------------|
---------------------------------------------------------------------------------------------|
---------------------------------------------------------------------------------------------|
---------------------------------------------------------------------------------------------|
--3-3-3-----3-----3-3-3-3-----3-----3-3-3-3-----3---3-3-3-3----3---3-------------------------|
--3-3-3-----3-----3-3-3-3-----3-----3-3-3-3-----3---3-3-3-3----3---3-------------------------|
palmed**          *******           *******         *******

verse fill (beginning part of verse w/o vocals)
gtr 1
----------------------------------------------------------|
----------------------------------------------------------|
----------------------------------------------------------|
----------------------------------------------------------|
--------8--8--7--7--5--5--7--7----------------------------|
----------------------------------------------------------|
      pinch

gtr2
-------------------------------------------------------------|
-------------------------------------------------------------|
------10--10--9--9--7--7--9--9-------------------------------|
-------------------------------------------------------------|
-------------------------------------------------------------|
-------------------------------------------------------------|


prechorus w/delay
-----------------------------------------------------------------------------------|
-----------------------------------------------------------------------------------|
-----------------------------------------------------------------------------------|
---9---9---9---9---9-9-----------5---5---5---5---5-5-------------------------------|
---7---7---7---7---7-7-----------3---3---3---3---3-3-------------------------------|
-----------------------------------------------------------------------------------|


Chorus Riff 1
Verse (with fill)
Prechorus

Chorus Riff 2
---------------------------------------------------------------------------------------|
---------------------------------------------------------------------------------------|
-----9---------------------------9-----------------------------------------------------|
---------10---9---10--------------10---9---12---10---9---------------------------------|
-----7---7----7----7-----------7---7----7----7-----7---7-------------------------------|
-----7---7----7----7-----------7---7----7----7-----7---7-------------------------------|

-----------------------------------------------------------------------------------------------|
-----------------------------------------------------------------------------------------------|
---------------------------------5--4--5----------------------------------------------5--4--5--|
-----------------------------------------------------------------------------------------------|
---3-3-3----3----3-3-3-3---3--3--3--------------3-3-3----3----3-3-3-3-----3--3--3--------------|
---3-3-3----3----3-3-3-3---3--3--3--------------3-3-3----3----3-3-3-3-----3--3--3--------------|

chorus riff 3
-----------------------------------------------------------|
-----------------------------------------------------------|
-----9--------------10------------------9--------------12--|
---------10---9-----------------------------10---9---------|
-----7---7----7----7-------------------7---7----7----7-----|
-----7---7----7----7-------------------7---7----7----7-----|


-----------------------------------------------------------------------------------------------|
-----------------------------------------------------------------------------------------------|
---------------------------------5--4--5----------------------------------------------5--4--5--|
-----------------------------------------------------------------------------------------------|
---3-3-3----3----3-3-3-3---3--3--3--------------3-3-3----3----3-3-3-3-----3--3--3--------------|
---3-3-3----3----3-3-3-3---3--3--3--------------3-3-3----3----3-3-3-3-----3--3--3--------------|


prechorus

Chorus riff 4
-----------------------------------------------------------|
-----------------------------------------------------------|
-----9--------------10------------------9--------------12--|
---------10---9-----------------------------10---9---------|
-----7---7----7----7-------------------7---7----7----7-----|
-----7---7----7----7-------------------7---7----7----7-----|


---------------------------------------------------------------------------------------------|
------------------------------5*-----5*-------------------------------------------5*-----5*--|
----------------------------------5*---------------------------------------------------5*----|
---------------------------------------------------------------------------------------------|
---3-3-3----3----3-3-3----------------------------3-3-3----3----3-3-3------------------------|
---3-3-3----3----3-3-3----------------------------3-3-3----3----3-3-3------------------------|
                            harmonics*


outro
-----------------------------------------|
-----------5*-----5*---------------------|
---------------5*------------------------|
-----------------------------------------|
---3--3----------------------------------|(repeat riff a bunch of times)
---3--3----------------------------------|
Related for Flatline Red - Thanks For Nothing tab