Song name
# A B C D E F G H I J K L M N O P Q R S T U V W X Y Z

Misc Unsigned Bands - Flatline Red - Heart Attack tab

Help us improve GuitareTab! Take a short survey!
Flatline Red
Heart Attack
Heart Attack (2008)
CGCFAD


verse
----------------------------------------------------------------------------------------|
----------------------------------------------------------------------------------------|
----------------------------------------------------------------------------------------|
----------------------------------------------------------------------------------------|
-1-1-1-1-1-1----------------------------------------------------------------------------|
-----------------4-4-4-4-4-4--1-1-1-1-1-1-4-4-4-4-4-4-----------------------------------|


----------------------------------------------------------------------------------------|
----------------------------------------------------------------------------------------|
----------------------------------------------------------------------------------------|
----------------------------------------------------------------------------------------|
-1-1-1-1-1-1-----------------------------------4-4-4-4-4-4------------------------------|
-----------------4-4-4-4-4-4--1-1-1-1-1-1-----------------------------------------------|

prechorus
--------------------------------------------------------------------------|
--------------------------------------------------------------------------|
--------------------------------------------------------------------------|
---------4/3------------6/4-----------4/3--8--8--8--8---------------------|
--1--1--1-------4--4--4-------3--3--3------6--6--6--6---------------------|
--1--1--1-------4--4--4-------3--3--3------6--6--6--6---------------------|


chorus
----------------------------------------------------------------------------|
----------------------------------------------------------------------------|
--3-3-3-3-3-3-3-3-3-3------8-8-8-8-8-----5-5-5-5-5--------------------------|
--1-1-1-1-1-1-1-1-1-1------6-6-6-6-6-----3-3-3-3-3--------------------------|
--1-1-1-1-1-1-1-1-1-1------6-6-6-6-6-----3-3-3-3-3--------------------------|
--1-1-1-1-1-1-1-1-1-1------6-6-6-6-6-----3-3-3-3-3--------------------------|


bridge
---------------------------------------------------------------------|
---------------------------------------------------------------------|
---------------------------------------------------------------------|
--1-1--1-1-1---------------------------------------------------------|
--1-1--1-1-1---------------------------------------------------------|
--1-1--1-1-1---------------------------------------------------------|


bridge 2 (clean)
--------------------------------------------------------------------------|
--------------------------------------------------------------------------|
-3-3-3-3-3-4-4-4-4-4-6-6-6-6-6-6-6-6-6-6----------------------------------|
-1-1-1-1-1-1-1-1-1-1-4-4-4-4-4-3-3-3-3-3----------------------------------|
-1-1-1-1-1-1-1-1-1-1-4-4-4-4-4-3-3-3-3-3----------------------------------|
-1-1-1-1-1-1-1-1-1-1-4-4-4-4-4-3-3-3-3-3----------------------------------|

---------------------------------------------------------------------------|
---------------------------------------------------------------------------|
-3-3-3-3-3-4-4-4-4-4-6-6-6-6-6-8-8-8-8-8-----------------------------------|
-1-1-1-1-1-1-1-1-1-1-4-4-4-4-4-6-6-6-6-6-----------------------------------|
-1-1-1-1-1-1-1-1-1-1-4-4-4-4-4-6-6-6-6-6-----------------------------------|
-1-1-1-1-1-1-1-1-1-1-4-4-4-4-4-6-6-6-6-6-----------------------------------|

---------------------------------------------------------------------------|
-----------------------4-4-4-4---------------------------------------------|
-----------------------4-4-4-4---------------------------------------------|
-----------------------4-4-4-4---------------------------------------------|
--1-1-1-1-1-1--------------------------------------------------------------|
--1-1-1-1-1-1--------------------------------------------------------------|
                     harmonics*


outro
--------------------------------------------------------------------|
-----------------------------------------------------4-4-4-4--------|
-----------------------------------------------------4-4-4-4--------|
------4/3---------------------------4/3--------------4-4-4-4--------|
--1-1------(x3)----1------------1-1------(x3)-----1-----------------|
--1-1----------------4--4-------1-1---------------1-----------------|
						harmonic
Related for Flatline Red - Heart Attack tab