Song name
# A B C D E F G H I J K L M N O P Q R S T U V W X Y Z

Misc Unsigned Bands - Flatline Red - Shelly tab

Help us improve GuitareTab! Take a short survey!
Shelly
Flatline Red
Heart Attack (2008)
CGCFAD


intro/chorus riff (clean)
------------------------------------------------------------------------|
------------------------------------------------------------------------|
--------------------------3-3-2-2-2-2-3---------------------------------|
--------8-8-7-7-7-7-8----------------------8-8-7-7-7-7-8---10--8--7--8--|
--5-5-5-5-5-5-5-5-5---1-1-1-1-1-1-1----5-5-5-5-5-5-5-5-5----8--8--8--8--|
--5-5-5-5-5-5-5-5-5---1-1-1-1-1-1-1----5-5-5-5-5-5-5-5-5----8--8--8--8--|

repeat distorted

------------------------------------------------------------------------------------------------|
------------------------------------------------------------------------------------------------|
--------------------------------3*-------2*-----------------------------------------------------|
---------8*------7*---------------------------------------8*------7*-------------10*-------10*--|
---5-5-5----5-5-----------1-1-1----1--1----------5-5-5-5----5-5-----------8-8-8-------8-8-------|
---5-5-5----5-5-----------1-1-1----1--1----------5-5-5-5----5-5-----------8-8-8-------8-8-------|
*Slight pinch

Chorus


bridge
-----------------------------------------------------------------------------|
-----------------------------------------------------------------------------|
-----------------------------------------------------------------------------|
14--14--14--14--14--14--14--------10-10-10-10-1010/1212-12-12-12-------------|
12--12--12--12--12--12--12--------8--8--8--8--8--8/10-10-10-10-10------------|
12--12--12--12--12--12--12--------8--8--8--8--8--8/10-10-10-10-10------------|

breakdown
-------------------------------------------------------------------------------------|
-------------------------------------------------------------------------------------|
-------------------------------------------------------------------------------------|
-------------------------------------------------------------------------------------|
-------------------------------------------------------------------------------------|
--8-8-8-8-0-0-0-0-8-8-8-8-0-0-0-0-8-8-0-0--(x3 1/2)----------------------------------|

----------------------------------------------------------------------|
----------------------------------------------------------------------|
----------------------------------------------------------------------|
----------------------------------------------------------------------|
--8-8-8-8-0-0-0-0-8-8-8-8-0-0-0-0-8-8-0-0-----------------------------|
--8-8-8-8-0-0-0-0-8-8-8-8-0-0-0-0-8-8-0-0--a couple more times--------|


--------------------------------------------------------------------|
--------------------------------------------------------------------|
-10-10-10-10-10-10-10-10-10-10-10-10-10-10-10-10-10-10-10-10--------|
--------------------------------------------------------------------|
--8--8--8--8--0--0--0--0--8--8--8--8--0--0--0--0--8--8--0--0--------|
--8--8--8--8--0--0--0--0--8--8--8--8--0--0--0--0--8--8--0--0--------|
hey shelly!


----------------------------------------------------------------------|
----------------------------------------------------------------------|
-12-12-12-12-12-12-12-12-12-12-12-12-12-12-12-12-12-12-12-12----------|
----------------------------------------------------------------------|
--8--8--8--8--0--0--0--0--8--8--8--8--0--0--0--0--8--8--0--0----------|
--8--8--8--8--0--0--0--0--8--8--8--8--0--0--0--0--8--8--0--0----------|
hey shelly!

-----------------------------------------------------------------------|
-----------------------------------------------------------------------|
-----------------------------------------------------------------------|
-12-12-12-12-12-12-12-12-12-12-12-12-12-12-12-12-12-12-12-12-----------|
--8--8--8--8--0--0--0--0--8--8--8--8--0--0--0--0--8--8--0--0-----------|
--8--8--8--8--0--0--0--0--8--8--8--8--0--0--0--0--8--8--0--0-----------|
hey shelly!


----------------------------------------------------------------------|
----------------------------------------------------------------------|
----------------------------------------------------------------------|
-10-10-10-10-10-10-10-10-10-10-10-10-10-10-10-10-10-10-10-10----------|
--8--8--8--8--0--0--0--0--8--8--8--8--0--0--0--0--8--8--0--0----------|
--8--8--8--8--0--0--0--0--8--8--8--8--0--0--0--0--8--8--0--0----------|
hey shelly!

chorus...
Related for Flatline Red - Shelly tab