Song name
# A B C D E F G H I J K L M N O P Q R S T U V W X Y Z

Misc Unsigned Bands - Flatline Red - Ocean tab

Ocean
CGCFAD

verse
---------------------------------------------------------------------------------------|
---------------------------------------------------------------------------------------|
----------------------9------------------------------------9---------------------------|
-------------7-----7------7------7--------------7------7-------7-------7---------------|
----------5------5-----------5---------------5-----5---------------5-------------------|
-(0)------------------------------------(0)--------------------------------------------|
let ring                             let ring

----------------------------------------------------------------------------------------|
----------------------------------------------------------------------------------------|
--------------------9---------------------------------------9---------------------------|
----------7------7-----7-----7--------------------7------7-----7-------7----------------|
------5------5------------5-------------------5------5-------------5--------------------|
-(5)-------------------------------------(5)--------------------------------------------|
let ring                              let ring


chorus
-----------------------------------------------------------------------------|
-----------------------------------------------------------------------------|
-----------------------------------------------------------------------------|
--------------11-11-11-11-11-11-11-11---1212121212121212---------------------|
---------------9--9--9--9--9--9--9--9---1010101010101010---7777777777777777--|
-----------------------------------------------------------7777777777777777--|

-------------------------------------------|
-------------------------------------------|
---------------97--------------------------|
-----------------97------------------------|
---5555555555555555----0-5555555555555555--|
---5555555555555555----0-5555555555555555--|


last part of chorus
------------------------------------------------------------------------------------|
------------------------------------------------------------------------------------|
------------------------------------------------------------------------------------|
------------------------------------------------------------------------------------|
---5--4--0--------------------------------------------------------------------------|
---5--4--0--------------------------------------------------------------------------|
Tap to rate this tab
# A B C D E F G H I J K L M N O P Q R S T U V W X Y Z