Song name
# A B C D E F G H I J K L M N O P Q R S T U V W X Y Z

Misc Unsigned Bands - Fontane - 112 tab

-------------------------------------------------------------------------------
			     1+1=2 - Fontane
-------------------------------------------------------------------------------
Tabbed by: Coen van der Wel
Email: coenvdwel@planet.nl

Tuning: -1 tone


I prefer playing it tuned one whole tone down, but it's originally probably played in 
tuning. I tabbed it for myself though, and thus it's tabbed one note down.

The tapping used is probably done by either a second guitarist or maybe even a 
Because I want to resemble the original sound on my own, I tried to create the same effect by 
in the taps. If you get the hang of it, try to double-tap every second tap on the
chord (capital X).

       D G C F A d
Aadd9  - 2 4 4 2 2
Bm     - 4 6 6 5 4
Dsus2  - - 2 4 5 0
E?     - - 4 6 7 -


// Pattern 1

   Aadd9             Aadd9      Bm    Aadd9             Dsus2    E?
d|----2--------2----------2-----4--------2--------2--------0---------(/7-\6-\2)-|
A|----2--------2----------2-----5--------2--------2--------5-----/7-------------|
F|------------------------------6--------------------------4-----/6-------------|
C|------------------------------6-----------------------2--------/4-------------|
G|-1--------2--------0h1--------4-----1--------2--------------------------------|
D|------------------------------------------------------------------------------|
          x        X          x     X        x        X        x


// Pattern 2

     E?   Dsus2
d|---4----0----|
A|---7----5----|
F|---6----4----|
C|---4----2----|
G|-------------|
D|-------------|


// Structure with lyrics

Verse 1 (pattern 1):
Ik zit hier wel alleen, maar denk aan iedereen
Want het leven gaat soms als een trein voorbij
Mag ik met je mee
Over land of over zee
Ieder neemt z'n eigen koffer mee
Waar gaan we naartoe, wat is onze koers
Hoeveel dagen zeilen zal het zijn

Chorus (pattern 1):
Naar een wereld voor onszelf, jij en ik alleen
Niemand zal ons vinden onze wereld is klein maar fijn
't Klinkt toch geweldig
Een en een is twee, twee zijn een is niet alleen

Verse 2 (pattern 1):
Vaar over gedachten, roer in de hand
Liefde in de zeilen en niemand zet ons nog aan de kant
Is er ooit een valse noot
Geen storm die jaagt op onze boot
De golven slaan kapot op de rotsen van het lot

Chorus (pattern 1)

Bridge (pattern 2):
Is er iets op aarde met nog meer waarde
Wat zal het antwoord zijn
Geld en dat soort zaken heb ik niets meer mee te maken
Vrijheid wat ons betreft altijd
Een wereld voor onszelf, voor onszelf
Naar een wereld voor onszelf, jij en ik alleen

Chorus (pattern 1)

Outtro (pattern 1):
Een en een is twee, twee zijn een is niet alleen
Een en een is twee, twee zijn een is niet alleen
Een en een is twee, twee zijn een is niet alleen


x	Tap
h	Hammer-on
/	Slide up
\	Slide down
Tap to rate this tab
# A B C D E F G H I J K L M N O P Q R S T U V W X Y Z