Guitaretab - guitar tabs
Song name
# A B C D E F G H I J K L M N O P Q R S T U V W X Y Z

Misc Unsigned Bands - The Sound Of Silence - Two Homes In One Heart tab

repeat 4 times

------0---------------------|
---3---3-3------------------|
--2-2---2-------------------|
-0--------------------------|
----------------------------|
----------------------------|


Repeat 4 Times

-------0--------------------|
---3----3-3-----------------|
--0-0----0------------------|
-0--------------------------|
----------------------------|
----------------------------|


Chorus:


-00000--00000--22222--00000-|
-33333--33333--33333--33333-|
-22222--00000--22222--22222-|
-00000--00000--00000--22222-|
----------------------00000-|
----------------------00000-|

Intro:

repeat 4 times

------0---------------------|
---3---3-3------------------|
--2-2---2-------------------|
-0--------------------------|
----------------------------|
----------------------------|

[ Tab from: http://www.guitaretab.com/m/misc-unsigned-bands/116588.html ]
Repeat 4 Times

-------0--------------------|
---3----3-3-----------------|
--0-0----0------------------|
-0--------------------------|
----------------------------|
----------------------------|

Chorus:


-00000--00000--22222--00000-|
-33333--33333--33333--33333-|
-22222--00000--22222--22222-|
-00000--00000--00000--22222-|
----------------------00000-|
----------------------00000-|


Outro:

repeat 4 times

------0---------------------|
---3---3-3------------------|
--2-2---2-------------------|
-0--------------------------|
----------------------------|
----------------------------|


Repeat 4 Times

-------0---------0----------|
---3----3-3------3----------|   (Let it Ring)
--0-0----0-------2----------|
-0---------------0----------|
----------------------------|
----------------------------|
Related for The Sound Of Silence - Two Homes In One Heart tab
Advertisement will be closed in 10 seconds