Song name
# A B C D E F G H I J K L M N O P Q R S T U V W X Y Z

Misc Unsigned Bands - Digitaliiz - Just Run tab

Just Run
words and music by Andrew and Ethan MacDonald
Tabbed by Andrew MacDonald 10/9/08
this is excatly how I play it

|-------------------------|
|-------------------------|
|----999-7-77-5-55-7-777--|
|----999-7-77-5-55-7-777--|
|-x--777-5-55-3-33-5-555--|
|-x-----------------------|
 

|-------------------------|
|-------------------------|
|-999-7-77-5-55-5/7-7-7-7-|
|-999-7-77-5-55-5/7-7-7-7-|
|-777-5-55-3-33-3/5-5-5-5-|
|-------------------------|

|-------------------------|
|-------------------------|
|-999-7-7---555--7777-----|
|-999-7-7---555--7777-----|
|-777-5-5---333--5xx5-----|
|-------------------------|

|-------------------------|
|-------------------------|
|-999-7-77-5-55/8-777-----|
|-999-7-77-5-55/8-777-----|
|-777-5-55-3-33/6-555-----|
|-------------------------|

|-------------------------|
|o----------------------o-|
|-999-7-77-5-55-7777------|
|o999-7-77-5-55-7777----o-|
|-777-5-55-3-33-5555------|
|-------------------------|

Fades out on album version
|-------------------------|
|-------------------------|
|-9--9--9--9--9--9--9--9--|
|-x--x--x--x--x--x--x--x--|
|-7--7--7--7--7--7--7--7--|
|-------------------------| Yeah, yeah, yeah, yeah,...
Tap to rate this tab
 
# A B C D E F G H I J K L M N O P Q R S T U V W X Y Z