Song name
# A B C D E F G H I J K L M N O P Q R S T U V W X Y Z

Misc Unsigned Bands - Brian Carlson - Life Goes On tab

Help us improve GuitareTab! Take a short survey!
E|-----------------------------------------------1---3---0---------------|
B|------------------------------------------------------------2----------|
G|--------1-------0---------1-------0------------------------------------|
D|-----2--------0-------2--------0---------------------------------------|
A|--3---------1-------3-------1------------------------------------------|
E|-----------------------------------------------------------------------|

E|-----------------------------------------------------------------------|
B|-----------------------------------------------------------------------|
G|---------------------------------1-------0--------1-----0--------------|
D|---3-2-0-2-3-0~~~~------2-------0-------2-------0----------------------|
A|---------------------------3-------1------3--------1-------------------|
E|-----------------------------------------------------------------------|

E|--------------------------------------------------------------------|
B|--------------------------------------------------------------------|
G|--------------------------------------------------------------------|
D|---------------------------------2~~~~~-------0~~~~~~---------------|
A|-----3~~~~~----0~~~~~~~---------------------------------------------|
E|--------------------------------------------------------------------|

E|------------------------------------------------- --------------------------------|
B|----------------------------------------------------------------------------------|
G|---------------------------------1--------0---------------------------------------|
D|-----------------------------2--------0-------------------------------------------|
A|---0-3~~~~~~~~------3--------1---------3~~~~-2~~~~~---0~~~~~----------------------|
E|----------------------------------------------------------------------------------|

The cord accompaniment goes

Riff.1 Em,E, A7 Em, E, A7

Riff.2 G~~~~, Em

Riff.3 none

Riff.4 Em, E, A7, Em~~~~
Related for Brian Carlson - Life Goes On tab