Song name
# A B C D E F G H I J K L M N O P Q R S T U V W X Y Z

Misc Unsigned Bands - Plagues Of Tomorrow - Bitch Everythings Beneath The Sky tab

Help us improve GuitareTab! Take a short survey!
Drop B flat tuning.            Http://www.myspace.com/plaguesoftomorrow
Bb-F-Bb-Eb-G-C

.=palm mute
h=hammer on
p=pull off

Guitar1       Guitar2         Guitar1
|-------      |-----------    |--------|
|-------      |-----------    |--------|
|-------      |-----------    |--------|
|3------      |-----------    |5-------|
|1-2-0-1      |4----------    |----4h7-|
|--2-0-1      |--0-8-0-5h8    |--0-----|
   . .           .   .           .


Guitar1&2|
|--------|--|
|--------|--|
|--------|--|
|55------|--|    Guitar1 rings out
|--448877|0~
|--------|0~


Guitar2
|-----------------------------|
|-----------------------------|
|-----------------------------|
|3---------------------5------|
|1-2-0-1---4--------------4h7-|
|--2-0-1-0---0-8-0-5h8---0----|
   . .   .   .   .       .

Guitar1&2
|--------------------|
|--------------------|
|--------------------|
|55-------77---------|
|--448877---66101099-|
|--------------------|


Both Guitars
|------------------------------------------------------------|
|------------------------------------------------------------|
|------------------------------------------------------------|
|3---------------------5------3---------------------55555555-|
|1-2-0-1---4--------------4h7-1-2-0-1---4--------------------|
|--2-0-1-0---0-8-0-5h8---0------2-0-1-0---0-8-0-5h8----------|
   . .   .   .   .       .      . .   .   .   .


Guitar1
|-------------------------------------5h8p5---------|
|-----------------------------------6-------6-------|
|---------------------------------5-----------5-----|
|55-------77---------55---------7---------------7---|
|--448877---66101099---448877-8-------------------8-|
|---------------------------------------------------|


Both guitars
|--------------------------------------------------------------|
|--------------------------------------------------------------|
|--------------------------------------------------------------|
|3---------------------5------3---------------------55555555---|  x4
|1-2-0-1---4--------------4h7-1-2-0-1---4----------------------|
|--2-0-1-0---0-8-0-5h8---0------2-0-1-0---0-8-0-5h8------------|
   . .   .   .   .       .      . .   .   .   .

On the last time, both guitars play this
               Guitar1    Guitar2
|------------  |--------  |---------|
|------------  |--------  |---------|
|------------  |--------  |---------|
|--------88--  |--------  |---------|
|0-8-5-0---77  |22552200  |---------|
|0-8-5-0-----  |--------  |55885544-|
 . . . .


Guitar2 plays once then both guitars come in
|-----------------------------------------------------------|
|-----------------------------------------------------------|
|-----------------------------------------------------------|
|-----------------------------------------------------------|
|000-0000--0000--0000--00000000-0000-00000000-0000-00000000-|
|000-0000--0000--0000--00000000-0000-00000000-0000-00000000-|


Guitar1 lead over breakdown on 4th time
|---------------------5h9p5--------------------------------------|
|----------85------58~-----85--85~85-----------------------------|
|--4~---36~---63~36----------36-----63~363---363~63--------------|
|----25-----------------------------------525------52~252---252~-|
|-1------------------------------------------------------323-----|
|2---------------------------------------------------------------|


Both Guitars
|------------------------|
|------------------------|
|------------------------|
|----(4)-----------------|   x4
|0430---0430(3)0430------|
|0430---0430---0430------|(1)


Breakdown
|---------------------------------|
|---------------------------------|
|---------------------------------|
|-------(4)-----------------------|   x4
|0-4-3-0---0-4-3-0(3)0-4-3-0------|
|0-4-3-0---0-4-3-0---0-4-3-0(1)---|

both guitars x4
|--------|----------------|----------------|------------------|---------|
|--------|----------------|----------------|-----------------9|---------|
|--------|----------------|----------------|-------------7h10-|---------|
|0--1-4-3|---6------------|----------------|---6------6h9-----|---------|
|0--1-4-3|3---85-5h8p5-5--|33333333--------|3---85-5h8--------|33333333-|
|0--1-4-3|-43---------6-63|--------44444444|-43---------------|---------|
                                                              |Gradually bend
Related for Plagues Of Tomorrow - Bitch Everythings Beneath The Sky tab