Song name
# A B C D E F G H I J K L M N O P Q R S T U V W X Y Z

Misc Unsigned Bands - Six-string Symphony - Settling The Score tab

“Settling the Score”
Six-String Symphony

Section Layout
1.	Piano Intro A1-A2
2.	Drum Intro / Guitar Intro
3.	Main Chord Riff
4.	Verse 1
5.	Main Chord Riff
6.	Verse 2
7.	Main Chord Riff
8.	Drum Solo A
9.	Guitar Solo A1-A3
10.	Solo Rhythm
11.	Guitar Solo B1-B3
12.	Solo Rhythm
13.	Drum Solo B
14.	Chorus
15.	Main Chord Riff (Vocal Hum + Piano)
16.	Outro

Piano Intro A1
E|-9~~-------|-11~~-------|-12~~-------|-14~--12-11-|
B|----9-7~-9-|-----9-7~-9-|-----9-7~-9-|------------|
G|-----------|------------|------------|------------|
D|-----------|------------|------------|------------|
A|-----------|------------|------------|------------|
E|-----------|------------|------------|------------|

E|-9~~-------|-11~~-------|-12~~-------|-14~--16~---|
B|----9-7~-9-|-----9-7~-9-|-----9-7~-9-|------------|
G|-----------|------------|------------|------------|
D|-----------|------------|------------|------------|
A|-----------|------------|------------|------------|
E|-----------|------------|------------|------------|

Piano Intro A2 / Piano Outro
E|-5~~-----------5-3-|-1~~-------0-------||-5~~-----------5-7-|-8~-7-5-3~~-----7--|
B|-5~~-----------5-3-|-1~~-------0-------||-5~~-----------5-7-|-8~-7-5-3~~-----7--|
G|-6~~-----------6-4-|-2~~-------1-------||-6~~-----------6-8-|-9~-8-6-4~~-----8--|  X2
D|-7~~-----------7-5-|-3~~-------2-------||-7~~-----------7-9-|-10~9-7-5~~-----9--|
A|-7~~-----------7-5-|-3~~-------2-------||-7~~-----------7-9-|-10~9-7-5~~-----9--|
E|-5~~-----------5-3-|-1~~-------0-------||-5~~-----------5-7-|-8~-7-5-3~~-----7--|

Drum Intro / Guitar Intro
  A(5)-----------------------------------||-E-----------------|------------E-F-G~-|

Main Chord Riff
A(5)  G | F  E  ||  A(5)  B(7)  C(8) | B(7)  A(5)  G  B(7)  X2

Main Riff / Solo Rhythm
   A A A A   A A A G   F F F F   E E E E    A A A A   A A A B   C B A G   G G B B
E|---------|---------|---------|---------||---------|---------|---------|---------|
B|---------|---------|---------|---------||---------|---------|---------|---------|
G|---------|---------|---------|---------||---------|---------|---------|---------|  X2
D|---------|---------|---------|---------||---------|---------|---------|---------|
A|---------|---------|---------|---------||---------|---------|---------|---------|
E|-5-5-5-5-|-5-5-5-3-|-1-1-1-1-|-0-0-0-0-||-5-5-5-5-|-5-5-5-7-|-8-7-5-3-|-3-3-7-7-|

Verse
E|---------|---------|---------|---------||---------|---------|---------|---------|
B|---------|---------|---------|---------||---------|---------|---------|---------|
G|---------|---------|---------|---------||---------|---------|---------|---------|  X2
D|---7---7-|---7---7-|---3---3-|---2---2-||---7---7-|---7---7-|---3---3-|---2---2-|
A|---------|---------|---------|---------||---------|---------|---------|---------|
E|-5---5---|-5---5---|-1---1---|-0---0---||-5---5---|-5---5---|-1---1---|-0---0---|

Guitar Solo A1
E|----------------|----------------||----------------|------------------|
B|----------------|----------------||----------------|------------------|
G|----------------|----------------||----------------|------------------|  X2
D|-7~-------------|----------------||-7~-------------|------------------|
A|---10-7---------|-7~--7--7H10-7--||---10-7---------|------------------|
E|-------10-7-10--|---10-10--------||-------10-7-5---|-3~-0-3-0-3H5-3P0-|

Guitar Solo A2
E|----------------|-8~--8-10-11-10-8---||----------------|-8~-----------|
B|-----------8-10~|---10------------10-||-----------8-10~|---10-8H10-10-|
G|------7-8-9-----|--------------------||------7-8-9-----|--------------|  X2
D|-7~-10----------|--------------------||-7~-10----------|--------------|
A|----------------|--------------------||----------------|--------------|
E|----------------|--------------------||----------------|--------------|

Guitar Solo A3
E|----------------|----------------||------------------|---------------------|
B|----------------|----------------||------------------|---------------------|
G|----------------|----------------||------------------|---------------------|  X2
D|----7----7-7--7~|----7----7-7--7~||-----9-----9-9--9~|-----9-----9-11-9-7--|
A|-7H9--7H9--7--7~|-7H9--7H9--7--7~||-9H11--9H11--9--9~|-9H11--9H11--------9-|
E|----------------|----------------||------------------|---------------------|

Guitar Solo B1
E|-----------------------|-----------------------||-------------------|
B|-10-XX10-10-XX10-13-12-|-10-XX10-10-XX10-13-12-||-8-XX8-8-XX8-13-12-|
G|-----------------------|-----------------------||-------------------|
D|-----------------------|-----------------------||-------------------|
A|-----------------------|-----------------------||-------------------|
E|-----------------------|-----------------------||-------------------|

E|-----------------------|
B|-10-XX10-10-XX10-------|
G|------------------9H10-|  X2
D|-----------------------|
A|-----------------------|
E|-----------------------|

Guitar Solo B2
E|-----------------------|-----------------------||-------------------|
B|-10-XX10-X10-X10-------|-10-XX10-X10-X10-------||-8-XX8-X8-X8-------|
G|------------------9H10-|------------------9H10-||--------------9H10-|
D|-----------------------|-----------------------||-------------------|
A|-----------------------|-----------------------||-------------------|
E|-----------------------|-----------------------||-------------------|

E|-----------------------|
B|-10-XX10-X10-X10-13-12-|
G|-----------------------|
D|-----------------------|
A|-----------------------|
E|-----------------------|

Guitar Solo B3
E|-------------------------|-10----10-12-13-12-13-12-||-15-13-12-13-15-13-12-13-|
B|-10-10-12-10-12-13-12-13-|----13-------------------||-------------------------|
G|-------------------------|-------------------------||-------------------------|
D|-------------------------|-------------------------||-------------------------|
A|-------------------------|-------------------------||-------------------------|
E|-5--5--5--5--5--5--5--3--|-1--1--1--1--0--0--0--0--||-5--5--5--5--5--5--5--7--|

E|-15-13-12-13-17-17-17-17-|
B|-------------------------|
G|-------------------------|
D|-------------------------|
A|-------------------------|
E|-8--7--5--3--3--3--7--7--|

Outro
   A    G    F    E      E F G   A
E|-5-XX-3-XX-1-XX-0~~~||-0-1-3---5-|
B|-5-XX-3-XX-1-XX-0~~~||-0-1-3---5-|
G|-6-XX-4-XX-2-XX-1~~~||-1-2-4---6-|
D|-7-XX-5-XX-3-XX-2~~~||-2-3-5---7-|
A|-7-XX-5-XX-3-XX-2~~~||-2-3-5---7-|
E|-5-XX-3-XX-1-XX-0~~~||-0-1-3---5-|
Tap to rate this tab
# A B C D E F G H I J K L M N O P Q R S T U V W X Y Z