Song name
# A B C D E F G H I J K L M N O P Q R S T U V W X Y Z

Misc Unsigned Bands - Sebastian Welander - Like An Immigrant tab

Help us improve GuitareTab! Take a short survey!
E---9----9----9----0----9--------------------------| x3
a---11---11---11---11---11-------------------------|
d--------------------------------------------------|
g--------------------------------------------------|
h--------------------------------------------------|
e--------------------------------------------------|

E---7-- 5-------------------------------------------| x3
a---9---7-------------------------------------------|
d---------------------------------------------------|
g---------------------------------------------------|
h---------------------------------------------------|
e---------------------------------------------------|
Related for Sebastian Welander - Like An Immigrant tab