Guitaretab - guitar tabs
Song name
# A B C D E F G H I J K L M N O P Q R S T U V W X Y Z

Misc Unsigned Bands - Davedays - No One tab

---Tab from Lucas(SecondGreenShirt)-----
Artist:Davedays
Song:No One(Cover)

How TO Play:http://www.youtube.com/watch?v=OnrrCiOTcIQ

Song:http://www.youtube.com/watch?v=h5Giizci_y0

Intro: A E f# D


A                 E
I just want you close
f#                 D
Where we can stay forever
A            E    f#                D
You can be sure that it will only get better
A                
You and me together
E                
Through the days and nights
f#                   D 
I donít worry cause everythingís gonna be all right
A
And people keep talking
E
Yeah they can say what they like
f#                D
But all I know is everythingís gonna be alright

A              E     f#               D
No one no one no one can get in the way of what Iím feeling
A              E     f#               D
No one no one no one can get in the way of what I feel for you

E|----------------------------------|
B|----------------------------------|
G|---------------------------------2|
D|-7-6-2-4-7-6-2-4-7-6-2-4-2-------2|
A|---------------------------5-4-2-0|
E|----------------------------------|



A                       E
When the rain is pouring down
f#               D
And my heart is hurting
A                   E
You'll always be around
f#               D
This I know for certain
A
You and me together
E
Through the days and nights
f#                  D
I donít worry cause everythingís gonna be all right
A
And People keep talking 
E
Yeah They can say what they like
f#                  D
But all I know is everythingís gonna be alright
[ Tab from: http://www.guitaretab.com/m/misc-unsigned-bands/116741.html ]
A              E     f#               D
No one no one no one can get in the way of what Iím feeling
A              E     f#               D
No one no one no one can get in the way of what I feel for you


E|----------------------------------|
B|----------------------------------|
G|---------------------------------2|
D|-7-6-2-4-7-6-2-4-7-6-2-4-2-------2|
A|---------------------------5-4-2-0|
E|----------------------------------|
  You,  You


B      d#
I know that some people search the world
D              f#
Just to find something like what we have
B                 d#                            D
I know that some people try, try to divide something so real
E
So till the end of time

There's no one
A
You and me together
E
Through the days and nights           
f#                     D
I don't worry cause everything's gonna be alright
A
And people keep talking
E
Yeah they can say what they like
f#
But all I know is
D
Everything's gonna be all right

SOLO

E|--------------------------------------------------------------------------------------------|
B|-------5---------------------------------------------5--------------------------------------|
G|6--4-6---4---4-6-----------4-7-4-7-4-7-4-7-4-6---4-6---4--4-6------------4-7-4-7-4-7-4-7-4-6|
D|-7---------7-----7-4-4-6-7---------------------7---------7-----7-4-4-6-7--------------------|
A|--------------------------------------------------------------------------------------------|
E|--------------------------------------------------------------------------------------------|




---Tab from Lucas(SecondGreenShirt)-----
Artist:Davedays
Song:No One(Cover)

Related for Davedays - No One tab