Song name
# A B C D E F G H I J K L M N O P Q R S T U V W X Y Z

Misc Unsigned Bands - Shadows End - Rise Up tab

Help us improve GuitareTab! Take a short survey!
aight, to get started this is going to be the official song, not bits and peices like 
tab...ive been working on it since i tabbed our other song so yeah...

played fairly slow                      fast sweep the 022
|----------------------------------------|
|----------------------------------------|
|----------------------------------------|
|--9---7---9---5---7---10--2--4-5--4----2|
|-7---5---7---3---5---8----2------------2|x2
|0---0---8---4---6---9-----0--2-3--2----0|
 ... ... ... ... ... ...

let ring
|----------------|--------|
|----------------|--------|
|----------------|--------|
|----------------|------0-|x8
|2-2-2-2-2-2-2-2-|----2---|
|0-0-0-0-0-0-0-0-|--2-----|
 . . . . . . .

|------|--|------|--|
|------|--|------|--|
|------|--|------|--|
|----0-|x8|----2-|x8|
|--2---|--|--2---|--|
|3-----|--|0-----|--|

|------------------------|
|------------------------|
|------------------------|
|2-3-3/5-3-2-3-3-35--8\7-|
|--------------1-13--6\5-|
|------------------------|

         hold 0 note
|-------------------------------|
|-------------------------------|
|-------------------------------|
|---7-10-9-5-0-7-10-9---------9~|
|0-(0~~~~~~~~~~~~~~~~)10-10\9-7~|
|-------------------------------|

|---------------------------------------------------------------|
|---------------------------------------------------------------|
|---------------------------------------------------------------|
|-9-9-9-9-9-9-9-9-7-7-7-7-7-7-7-7-5-5-5-5-5-5-5-5-3-2-3-2-3-2-3-|x4
|7-7-7-7-7-7-7-7-5-5-5-5-5-5-5-5-3-3-3-3-3-3-3-3--1---1---1---1-|
|---------------------------------------------------------------|
 ................................................

  hit the 0 very hard make it last
|--------------------|
|--------------------|
|--------------------|
|-3-2-0~-------------|
|--------------------|
|--------------------|

   tap on to make harmonic not the squeeling harmonic**
|--------------------|
|--------------------|
|-----*12-----*12~---|
|h*12----------------|
|---------*12--------|
|--------------------|

heres the chorus-harmonics aswell

|-*19-*12-------*19-----*12----|
|---------*12~------*19-----*12| x4
|------------------------------|
|------------------------------|
|------------------------------|
|------------------------------|

soft solo
|----------------------------------------|
|----------------------------------------|
|----------------------------------------|
|12-11-9--9-11-12--12-11-9--7--9-9/12-11-|
|----------------------------------------|
|----------------------------------------|

|--------------------------|
|--------------------------|
|--------------------------|
|9-7----5------------------|
|---------5-3-2-3----------|
|-----------------0--0h2h3-|

|--------------------|
|--------------------|
|--------------------|
|----7--9^-7--5-7----|
|5-7-5---------------|
|3-5-----------------|

|----------------||-----------|
|----------------||-----------|
|----------------||-----------|
|5-4-------------||5-3-2---2--|both x2
|----5-3-2--3----||------3----|
|----------------||-----------|

slowly speeds up on each repeat
|----------------|   |-|
|----------------|   |-|
|----------------|   |-|
|5-5-5-5-5-5-555-|x4 |5|
|3-3-3-3-3-3-333-|   |3|
|----------------|   |-|

vocals:"1,2,3,4!"
4 cymbal crashes

|----------------|
|----------------|
|----------------|
|----------------|
|33----33----33--|x4
|1111111111111111|
 ................

|----------------|
|----------------|
|----------------|
|----------------|
|22----22----22--|x4
|0000000000000000|
 ................

|----------------|
|----------------|
|----------------|
|----------------|
|44----44----44--|x4
|2222222222222222|
 ................

|----------------|
|----------------|
|----------------|
|----------------|
|33----33----33--|x4
|5555555555555555|
 ................

rythm slows not tempo
|----------------|
|----------------|
|----------------|
|----------------|
|4-----4-----4---|x2
|2-2-2-2-2-2-2-2-|

|----------------|
|----------------|
|----------------|
|----------------|
|2-----2-----2---|x4 hold 2 0 last repeat
|0-----2-----0---|

|----------------|
|----------------|
|----------------|
|----------------|
|-2----2----2----|
|-0----0----0----|

|----------------|
|----------------|
|----------------|
|-----X\---------|
|---X\-----------|
|-X\-------------|

|-------------|
|-------------|
|-------------|
|5--10--9--7--|x3
|5--10--9--7--|
|0--0---0--0--|
        tremelo very fast
|----0/13--15-17-12--14-15--11-13-14----12~|
|------------------------------------------|repeat tremelo part from
|------------------------------------------|the slide twice
|(7)---------------------------------------|
|(7)---------------------------------------|
|(0)---------------------------------------|

                                taping style pull off(flicking thing)
|-12-12-12-12\3-3-2-3-5-3-2-3-3p2p0------------|
|----------------------------------------------|
|----------------------------------------------|
|----------------------------------------------|
|----------------------------------------------|
|----------------------------------------------|

|-*19-*12-------*19-----*12----|
|---------*12~------*19-----*12| x2
|------------------------------|
|------------------------------|
|------------------------------|
|------------------------------|
Related for Shadows End - Rise Up tab